Unloco - Empty Chords & Tabs

 

Empty Chords & Tabs

Unloco Chords & Tabs

Version: 1 Type: Tab 0 ratings
1 star 2 stars 3 stars 4 stars 5 stars
comments

Empty Tab

Unloco
Album: Becoming I
Song: Empty
Tabbed by Sickelectric320@aol.com

This song is really good. If you haven't heard of Unloco, check them out
at www.unloco.com and on the Matrix: Reloaded soundtrack. 

[INTRO + VERSE]
C#|-------------------------------------------------|
G#|-------------------------------------------------|
E |-------------------------------------------------|
B |-----0---0-----7---7--------10---10-----5---5----|
F#|---0---0-----7---7--------8----8------3---3------|
B |-0---------7----------7/8-----------3------------|

[INTERLUDE]
[Palm Muted]
C#|------------------|
G#|------------------|
E |------------------|
B |--5-5--5----------|
F#|--5-5--5----------|
B |--5-5--5----------|

[CHORUS]
  
C#|------------------------------------|
G#|------------------------------------|
E |------------------------------------|
B |--0-000--77-7777-7-88-88---33-3333--|
F#|--0-000--77-7777-7-88-88---33-3333--|
B |--0-000--77-7777-7-88-88---33-3333--|
     
[2nd, 3rd and 4th repeat]
[ Tab from: http://www.guitartabs.cc/tabs/u/unloco/empty_tab.html ]
C#|------------------------------------|
G#|------------------------------------|
E |------------------------------------|
B |--10-000--77-7777-7-88-88---33-3333-|
F#|--10-000--77-7777-7-88-88---33-3333-|
B |--10-000--77-7777-7-88-88---33-3333-|
     

[INTERLUDE2]

c#|-------------------|
g#|-------------------|
e |-------------------|
B |-5-555-555-555-55--|
F#|-5-555-555-555-55--|
B |-5-555-555-555-55--|


[BREAKDOWN]

c#|---------------------------|
g#|---------------------------|
e |---------------------------|
B |--000-888-000-777--8--10---|
F#|--000-888-000-777--8--10---|
B |--000-888-000-777--8--10---|

[INTERLUDE3]

c#|---------------|
g#|---------------|
e |---------------|
B |--0~~----------|
F#|--0~~-let ring-|
B |--0~~----------|


[ENDING]

c#|----------------------------------------|
g#|----------------------------------------|
e |----------------------------------------|
B |--0-000-000-000-00--8-8888--3-3333333---|
F#|--0-000-000-000-00--8-8888--3-3333333---|
B |--0-000-000-000-00--8-8888--3-3333333---|
Comments