Unloco - Downing In It Chords & Tabs

 

Downing In It Chords & Tabs

Unloco Chords & Tabs

Version: 1 Type: Bass Tab 0 ratings
1 star 2 stars 3 stars 4 stars 5 stars
comments

Downing In It Bass Tab

Band- Unloco
Song- Down In It

Verse:
|--6-6-6-6-6-9--99-|
|-4-4-6-6-7-7------|
|------------------| 10x
|------------------|
|------------------|

PreChorus:
|-----------------|
|-----------------|
|-----------------|
|-4-------0-------|
|-----------------|

Chorus:
|------------------------------------|
|------------------------------------|
|---------------------------22222222-| 4x
|--------2/4-444444-0--0-00----------|
|-2--2-22----------------------------|

PreVerse:
|--------------|
|--------------|
|-4-(let ring)-|
|--------------|
|--------------|

Verse 8x
PreChorus
Chorus 4x
[ Tab from: http://www.guitartabs.cc/tabs/u/unloco/downing_in_it_btab.html ]
Interlude:
|----------------------------------|
|-------------------------44444444-|
|-444444446666666677777777---------| 2x
|----------------------------------|
|----------------------------------|

|-------------------------------------------------------------------|
|-------------------------------------------------------------------|
|-444444446666666622222222777777774444444466666666222222222---------|
|----------------------------------------------------------00000000-|
|-------------------------------------------------------------------|

Chorus 4x

Last Chorus:
|----------------------------------|
|----------------------------------|
|-44444444----------------22222222-| 4x
|---------4444444400000000---------|
|----------------------------------|
Comments