Unloco - Crashing Chords & Tabs

 

Crashing Chords & Tabs

Unloco Chords & Tabs

Version: 1 Type: Bass Tab 0 ratings
1 star 2 stars 3 stars 4 stars 5 stars
comments

Crashing Bass Tab

~~~~~~~~~~~~~~~~~~~~~~~~~~~~Unloco~~~~~~~~~~~~~~~~~~~~~~~~~~~~
~~~~~~~~~~~~~~~~~~~~~~~~~~~Crashing~~~~~~~~~~~~~~~~~~~~~~~~~~~

Crashing
by: Zack Anderson
gb_packers152004@hotmail.com

Intro -- bass starts 12 seconds into song
G|-------------------------------------|
D|-------------------------------------|
A|-3-3--66666666-----------------------|
E|-----------------4-4--66661166-------|

Verse 1  x4
G|-------------------------------------|
D|-------------------------------------|
A|-------------------------------------|
E|-6666666666---1111-22222--4455-------|

Chorus   x2
G|-------------------------------------|
D|-------------------------------------|
A|-3-3--66666666-----------------------|
E|-----------------4-4--66661166-------|

[ Tab from: http://www.guitartabs.cc/tabs/u/unloco/crashing_btab.html ]
Verse 2  x1 after drums kik in
G|-------------------------------------|
D|-------------------------------------|
A|-------------------------------------|
E|-6666666666---1111-22222--4455-------|
continued...  x2           x2
G|-----------------|------------------------
D|-----------------|------------------------
A|-----------------|--333-666-222-555-22-55-
E|-3-3-1-3--33-1-2-|------------------------
               ^ ^ DNT PLAY THESE NOTES ON THE FINAL REPETITION!!

Chorus   x4
G|-------------------------------------|
D|-------------------------------------|
A|-3-3--66666666-----------------------|
E|-----------------4-4--66661166-------|

Bridge  Play til chorus
G|----------------
D|----------------
A|----------------
E|-3--3-62--22-62-

Chorus   x5
G|-------------------------------------|
D|-------------------------------------|
A|-3-3--66666666-----------------------|
E|-----------------4-4--66661166-------|

outro
G|----------------\
D|---------------- \
A|---------------- /\not much bass jus play til the end
E|-3--3-62--22-62-/
Comments