Unloco - Clean Chords & Tabs

 

Clean Chords & Tabs

Unloco Chords & Tabs

Version: 1 Type: Tab 0 ratings
1 star 2 stars 3 stars 4 stars 5 stars
comments

Clean Tab

   
Song: "Clean"
Artist: Unloco
Album: Healing
Transcribed By: Bryan Bramlett (bryanmb87@aol.com)

Tuning: Drop D, 1 1/2 Steps Down (B,F#,B,E,G#,C#)

INTRO:
|-------------------------|
|-------------------------|
|-------------------------|
|-------------------------|
|-----------------------1-|
|-0-0--0-0--1-1--1-1--1---|

INTERLUDE:
|-------------------------|
|-------------------------|
|-------------------------|
|-------------------------|
|-0-0--0-0--1-1--1-1--1-8-|
|-0-0--0-0--1-1--1-1--1-8-|
[ Tab from: http://www.guitartabs.cc/tabs/u/unloco/clean_tab.html ]
VERSE:
|----------------------------------------|
|----------------------------------------|
|----------------------------------------|
|--------------------------9-9--9-9--9-9-|
|-2-2--2-2--2-2--2-2--2-2--7-7--7-7--7-7-|
|-2-2--2-2--2-2--2-2--2-2----------------|
PM. .  . .  . .  . .  . .

CHORUS:
|--------------------------|
|--------------------------|
|--------------------------|
|-2-2-33-3-33-2-2-33-3-33--|
|-2-2-33-3-33-2-2-33-3-33--|
|-2-2-33-3-33-2-2-33-3-33--|

VERSE 2: (palm mute)
|---------------------|
|---------------------|
|---------------------|
|---------------------|
|-2-2--2-3--3--3-3--5-|
|-2-2--2-3--3--3-3--5-|

BRIDGE:
|------------------------------------|
|------------------------------------|
|-7-77777-77777-778-88812-1212121211-|
|-7-77777-77777-778-88812-1212121211-|
|-5-55555-55555-556-66610-10101010-9-|
|------------------------------------|

OUTRO:
|------------------|
|------------------|
|------------------|
|-0--0--1-1-1--1-8-|
|-0--0--1-1-1--1-8-|
|-0--0--1-1-1--1-8-|

Comments