Unloco - Bruises Chords & Tabs

 

Bruises Chords & Tabs

Unloco Chords & Tabs

Version: 3 Type: Tab 0 ratings
1 star 2 stars 3 stars 4 stars 5 stars
comments

Bruises Tab

   
song:bruises
artist:unloco
tuneing: drop D down 1 and 1/2 steps (B,F#,B,E,G#,C#)
tabber: -x-eric-x-
This is my first tab so if you have any corrections send them to me at
x-uncloudthesky-x@hotmail.com

legend
p-pull off
hhammer on
/-slide
pm*-palm mute
~-vibrato

ok i araged this in riffs for the order look at the bottom

INTRO
C#|----------------------------------------------|
G#|----------------------------------------------|
 E|----------------------------------------------|
 B|-3p2-2--2--3p2-2--2--2h3-3-3--3/5-5555--------|
F#|----------------------------------------------|
 B|----------------------------------------------|

CHORUS
C#|----------------------------------------------|
G#|----------------------------------------------|
 E|----------------------------------------------|
 B|-3p2-2--2--3p2-2--2--3p2-2-2/10--10-----------|
F#|-3p2-2--2--3p2-2--2--3p2-2-2/10--10-----------|
 B|-3p2-2--2--3p2-2--2--3p2-2-2/10--10-----------|

VERSE:this is all plam muted there is also some
harmonics in there somwhere but i dont know what they are
C#|----------------------------------------------|
G#|----------------------------------------------|
 E|----------------------------------------------|
 B|----------------------------------------------|
F#|-3p2-2--2-3p2-2--2-3p2-2--3--0----------------|
 B|-3p2-2--2-3p2-2--2-3p2-2--3--0----------------|
PM  * * *  * * * *  * * * *  *  *
[ Tab from: http://www.guitartabs.cc/tabs/u/unloco/bruises_tab_ver_3.html ]
KEYBOARD: this part is palyed woth a key board but this is pretty close for guitar i 
it sounds good use your wammie bar
C#|----------------------------------------------|
G#|----------------------------------------------|
 E|-5~-----4~------------------------------------|
 B|-3~-----2~------------------------------------|
F#|----------------------------------------------|
 B|----------------------------------------------|

BRIDGE
C#|----------------------------------------------|
G#|----------------------------------------------|
 E|----------------------------------------------|
 B|-33333--10--10--8--8--7-8-7-------------------|
F#|----------------------------------------------|
 B|----------------------------------------------|

C#|----------------------------------------------|
G#|----------------------------------------------|
 E|----------------------------------------------|
 B|-3p2-2--2-2h3-3-3--3/55555--------------------|
F#|----------------------------------------------|
 B|----------------------------------------------|

C#|----------------------------------------------|
G#|----------------------------------------------|
 E|----------------------------------------------|
 B|-3p2-2--2-2h3-3-3--3/55555--------------------|
F#|----------------------------------------------|
 B|----------------------------------------------|

INTERLUDE: the same as the intro but with a wah peddle(for those of you without one 
mute it and get lighter on the plam mute it sort of creates the same effect)
C#|----------------------------------------------|
G#|----------------------------------------------|
 E|----------------------------------------------|
 B|-3p2-2--2--3p2-2--2--2h3-3-3--3/5-5555--------|
F#|----------------------------------------------|
 B|----------------------------------------------|


this is the order

    INTRO-2x
   CHORUS-4x
    VERSE-4x
 KEYBOARD-2x
   CHORUS-2x
    VERSE-4x
 KEYBOARD-2x
   CHORUS-4x
   BRIDGE-2x
INTERLUDE-4x
   CHORUS-8x

I'm sorry for my bad spelling have fun if you can make any corrections please send them 
me
-peace
Comments