Unloco - Bruises Chords & Tabs

 

Bruises Chords & Tabs

Unloco Chords & Tabs

Version: 2 Type: Tab 0 ratings
1 star 2 stars 3 stars 4 stars 5 stars
comments

Bruises Tab

A lot of people play this in either drop D or some kinda other weird tuning.
I play it regular tuning (EADGBe). Well here's my tab for Bruises by Unloco.
Oh the whole song's has heavy deathmetal distortion, pretty sweet huh?

Intro pt.I      x2 can either be played on either A or D string.
e|----------------------------------------|
B|----------------------------------------|
G|----------------------------------------|
D|-3/2-2-2--3/2-2-2--3/2-3-3-3/5--5-5-5-5-|
A|----------------------------------------|
E|----------------------------------------|

Intro pt.II     x2 either be played on the EAD or ADG strings
e|----------------------------------------|
B|----------------------------------------|
G|----------------------------------------|
D|-5/4-4-4--5/4-4-4--5/4-5-5-5/7--7-7-7-7-|
A|-5/4-4-4--5/4-4-4--5/4-5-5-5/7--7-7-7-7-|
E|-3/2-2-2--3/2-2-2--3/2-3-3-3/5--5-5-5-5-|
[ Tab from: http://www.guitartabs.cc/tabs/u/unloco/bruises_tab_ver_2.html ]
Chorus         x4
e|----------------------------------------|
B|----------------------------------------|
G|----------------------------------------|
D|-5/4-4-4--5/4-4-4--5/4-5-5-5/7--7-7-7-7-|
A|-5/4-4-4--5/4-4-4--5/4-5-5-5/7--7-7-7-7-|
E|-3/2-2-2--3/2-2-2--3/2-3-3-3/5--5-5-5-5-|

Verse          x4
e|----------------------------------|
B|----------------------------------|
G|----------------------------------|
D|----------------------------------|
A|-5/4-4-4--5/4-4-4--5/4-4-4-4-5--7-|
E|-3/2-2-2--3/2-2-2--3/2-2-2-2-3--5-|
PM ... . .  ... . .  ... . . . .  .

Bridge
e|------------------------------------------------------------------------|
b|------------------------------------------------------------------------|
G|------------------------------------------------------------------------|
D|-3-3-3-3-3--10-10-8-8--7-8-7--3/2-2-2h3-3--3/5-5-5--3/2-2-2h3-3--3/5-5-5|
A|------------------------------------------------------------------------|
E|------------------------------------------------------------------------|
Comments