Unleashed - Where No Life Dwells Chords & Tabs

 

Where No Life Dwells Chords & Tabs

Unleashed Chords & Tabs

Version: 1 Type: Tab 0 ratings
1 star 2 stars 3 stars 4 stars 5 stars
comments

Where No Life Dwells Tab

Band: Unleashed
Album: Where No Life Dwells
Song: Where No Life Dwells

Transcribed By: Arckanum
Email: Arckanum@teamwarfare.com
Website: www.teamrapture.com
More Tabs from me at: http://www.doomish.com/go/?r=arckanum

listen to the song to know when to tremolo pick and palm mute and such.
NOTE: there are mistakes that i couldn't get, being that some riffs
are tuff to tab by ear. If anyone finds a fix plz email it to me.
Also listen to the song to hear the Riff order cuz i'm to lazy to
write it out, shouldn't be hard tho.

Tuning: 2.5 steps down (B)

(All Clean)
Riff:1
|-------------------------------------------------------------------|
|-------------------------------------------------------------------|
|-----h--p---------------h--p---10-9--------------------------------|
|--7-9-10-9--12-10-9--7-9-10-9-------10-----------------------------|
|-------------------------------------------------------------------|
|-------------------------------------------------------------------|

Riff:2
|-------------------------------------------------------------------|
|-------------------------------------------------------------------|
|-----p--h---12-10--------h--p---9----------------------------------|
|--7-9-10-9--------12--7-9-10-9----10-9-----------------------------|
|-------------------------------------------------------------------|
|-------------------------------------------------------------------|

Riff:3
|-------------------------------------------------------------------|
|-------------------------------------------------------------------|
|--------------------------------------------------9----------------|
|--7-7-7--9-10-12-10-9-10-12-10--7-7-7--9-10-12-10---10-12-10-------|
|-------------------------------------------------------------------|
|-------------------------------------------------------------------|
[ Tab from: http://www.guitartabs.cc/tabs/u/unleashed/where_no_life_dwells_tab.html ]
Riff:4
|-------------------------------------------------------------------|
|-----------------h--p------------------------------h--p------------|
|----------12-10-9-10-9----------------------12-10-9-10-9-----------|
|-----------------------10-12-10-9------------------------10-12-10-9|
|-10-10-10--------------------------10-10-10------------------------|
|-------------------------------------------------------------------|

Riff:5
|-------------------------------------------------------------------|
|-------------------------------------------------------------------|
|--------------------9-----------------------------9----------------|
|--7-7-7--9-10-12-10---10-12-10--7-7-7--9-10-12-10---10-9-10--------|
|-------------------------------------------------------------------|
|-------------------------------------------------------------------|

Riff:6
|-------------------------------------------------------------------|
|------------------h--p---------------------------------------------|
|-----------12-10-9-10-9-------------------------9------------------|
|------------------------10-12-10-9--7-7-7--9-10---10-12-10-9-10----|
|--10-10-10---------------------------------------------------------|
|-------------------------------------------------------------------|

Riff:7
|-------------------------------------------------------------------|
|-------------------------------------------------------------------|
|----------h--p----------------------------h--p---------------------|
|--7-7-7--9-10-9--7-12-10--7-9-10--7-7-7--9-10-9--7-12-10--7-9-10---|
|-------------------------------------------------------------------|
|-------------------------------------------------------------------|

Riff:8
|-------------------------------------------------------------------|
|------------------h--p---------------------------------------------|
|-----------12-10-9-10-9--------------------------------------------|
|------------------------10-12-10-9--7--9-10-12-10-9--7-------------|
|--10-10-10---------------------------------------------------------|
|-------------------------------------------------------------------|
Comments