Unleashed - The Immortals Chords & Tabs

 

The Immortals Chords & Tabs

Unleashed Chords & Tabs

Version: 1 Type: Tab 0 ratings
1 star 2 stars 3 stars 4 stars 5 stars
comments

The Immortals Tab

Unleashed"The immortals"
from the album "Shadows in the deep"
Transcribed by Nicklas magnusson
tuning 2 whole steps down b,

 Riff 1                                 Riff2
|--------------------------------------|----------------------------------|
|--------------------------------------|----------------------------------|
|--------------------------------------|----------------------------------|
|--------------------------------------|----------------------------------|
|-2----2-----p------2----2-----p-----2-|-2--------p------2--------p-----2-|
|-0-00-0-00-4-3-2-1-0-00-0-00-4-3-2-1--|-0-----3-4-3-2-1-0-----3-4-3-2-1--|
[ Tab from: http://www.guitartabs.cc/tabs/u/unleashed/the_immortals_tab.html ]
Riff 3      Riff 4                                  Riff 5
|----------|--------------------------------------|---------------------------------|     
|----------|--------------------------------------|---------------------------------|
|----------|--------------------------------------|---------------------------------|
|----------|--------------------------------------|---------------------------------|
|-2--------|-2------2-5------5-8-----8-11------11-|-2----2-----2--2-2----2-----2--1-|
|-0--------|-0------0-3------3-6-----6-9-------9--|-0-00-0-0001-01--0-00-0-0001-01--|

This is all the riffs i can remember i know that there's at least one more, and since don't
have the album any more i can't write the order of the riffs either. Feel free to finish it.
Comments