Unleashed - Dont Want To Be Born Chords & Tabs

 

Dont Want To Be Born Chords & Tabs

Unleashed Chords & Tabs

Version: 1 Type: Tab 0 ratings
1 star 2 stars 3 stars 4 stars 5 stars
comments

Dont Want To Be Born Tab

Unleashed
Don't Want To Be Born

From the album 'Hell's Unleashed' (2002, Century Media)

Line-up:
Fredrik - lead guitar
Johnny - bass & vocals
Tomas - rhythm guitar
Anders - drums

Tuning: not a clue. I tabbed in D, but they probably play in B.

*: palm muting

Riff 1
|------|
|------|
|------|
|------|
|--7/--|
|--5/--|


Riff 2 (Tomas)
|---------------------------------------|
|---------------------------------------|
|---------------------------------------|
|---------------------------------------|
|-2-22-2-2222-2-22-2-2-22-2-2222-4-5-8--|
|-0-00-0-0000-0-00-0-0-00-0-0000-2-3-6--|
    **   ****   **     **   ****

Riff 2 (Fredrik) I think this is palm muted all the way.
|------------------------------------------|
|------------------------------------------|
|----445544----445544----445544-00445577---|
|-22--------22--------22-------------------|
|------------------------------------------|
|------------------------------------------|

[ Tab from: http://www.guitartabs.cc/tabs/u/unleashed/dont_want_to_be_born_tab.html ]
Riff 3
|----------------------------------------|
|----------------------------------------|
|----------------------------------------|
|----------------------------------------|
|-1-3-----1/5---------------------------------|
|-----3-2----------------------------------|


Riff 4 (Anders) This is the occasional riffing
 over the clean bit. Listen for timing.
|----------------------------------------|
|----------------------------------------|
|----------------------------------------|
|----------------------------------------|
|-2-22-2-4-44-44-22-22-22-22-44-44-55-55-|
|-0-00-0-2-22-22-00-00-00-00-22-22-33-33-|


Riff 4 part 1 (Fredrik) The clean bit.
|-------------------------------------------|
|-------------------------------------------|
|---------4-------------------------5-------|
|---4---4---4-4---------------5---5--5---5--|
|-2---2------2--------------3---3------3----|
|-------------------------------------------|

part 2
|------------------|
|------------------|
|--------6---------|
|----6-6--6--6-----|
|--4--4-----4------|
|------------------|
Comments