Unleashed - Defender Chords & Tabs

 

Defender Chords & Tabs

Unleashed Chords & Tabs

Version: 1 Type: Tab 0 ratings
1 star 2 stars 3 stars 4 stars 5 stars
comments

Defender Tab

   
Unleashed "defender"
from the album "victory"
transcribed Richy Metal richydeath@yahoo.es

tono-b-e-a-d-f#-b
|--------------------------------------------------|
|--------------------------------------------------|
|--------------------------------------------------|
|--4--3--------------------------------4--7--------|
|--2--1--2--2-2-2--2--2-2-2--2--2-2-2--2--5--------|
|--------0--0-0-0--0--0-0-0--0--0-0-0--------------|
         .  . . .  .  . . .  .  . . .
                Odin guide my sword...
|-------------|-----------------------|
|-------------|-----------------------|
|-------------|-----------------------|
|---4--3------|--4---7---3----7---4---|
|---2--1------|--2---5---1----5---2---|
|-------------|-----------------------|

|--------------------------------------------------|
|--------------------------------------------------|
|--------------------------------------------------|
|-88888885555444477778888855554444-----------------|
|--------------------------------------------------|
|--------------------------------------------------|
  ................................
solo guit.
|---------------------------------------------------------|
|---------------------------------------------------------|
|-5h7h8--5h7h8--5h7h8--5h7h8--5h7h8--5h7h8--5h7h8--5h7h8--|
|---------------------------------------------------------|
|---------------------------------------------------------|
|---------------------------------------------------------|
[ Tab from: http://www.guitartabs.cc/tabs/u/unleashed/defender_tab.html ]
|--------------------------------------------------|
|--------------------------------------------------|
|-3h5h6-3h5h6-3h5h6-3h5h6-3h5h6-3h5h6-3h5h6-3h5h6--|
|--------------------------------------------------|
|--------------------------------------------------|
|--------------------------------------------------|

|---------------------------------------------------------|
|-5h7h8--5h7h8--5h7h8--5h7h8--5h7h8--5h7h8--5h7h8--5h7h8--|
|---------------------------------------------------------|
|---------------------------------------------------------|
|---------------------------------------------------------|
|---------------------------------------------------------|

|---------------------------------------------------------|
|--3h5h6-3h5h6-3h5h6-3h5h6-3h5h6-3h5h6-3h5h6-3h5h6--------|
|---------------------------------------------------------|
|---------------------------------------------------------|
|---------------------------------------------------------|
|---------------------------------------------------------|

|--------------------------------------------------|
|--------------------------------------------------|
|--------------------------------------------------|
|-88888885555444477778888855554444-----------------|
|--------------------------------------------------|
|--------------------------------------------------|
  ................................
end
|---------------------------------------------------------|
|---------------------------------------------------------|
|--4444444444444777777333333333333337777774444444444444---|guit I
|---------------------------------------------------------|
|--2222222222222555555111111111111115555552222222222222---|guit II
|---------------------------------------------------------|
   ....................................................
Comments