Unleashed - Death Metal Victory Chords & Tabs

 

Death Metal Victory Chords & Tabs

Unleashed Chords & Tabs

Version: 1 Type: Tab 0 ratings
1 star 2 stars 3 stars 4 stars 5 stars
comments

Death Metal Victory Tab

   
Band:  (Unleashed)
Album: (Warrior)
Song:  (Death Metal Victory)

Transcribed By: (Charles Vosvick)
Email:          (CE_JediSith@msn.com)


.  - palm mute           /  - slide up to
\  - slide down to       ~  - vibrato
h  - hammer on           b  - Bend
p  - pull off            Suffixes for bend
t  - tap                 f  - full bend    h - half bend
ph - pinched harmonic    q  - quarter bend t - tap bend
*  - see comment         ^  - Hold bend    r release bend
x  - Stuccatto           ~  - vibrato bend
,  - slight palm mute    () - ghost note, sustained note
"  - tremolo note        <> - Trill

Tuning B E A D F# B

Riff 1
|-------------------------------------------------------------------|
|-------------------------------------------------------------------|
|-------------------------------------------------------------------|
|-5-------3-5------5-------3-5--------------------------------------|
|-3-------1-3-4----3-------1-3-6-----11-----------------------------|
|-------------2----------------4-----9------------------------------|

Riff 2
|-------------------------------------------------------------------|
|-------------------------------------------------------------------|
|-------------------------------------------------------------------|
|-5"-------3"-5"-------------5"-------3"-5"-------------------------|
|-3"-------1"-3"-4"-----9"---3"-------1"-3"-6"-----11"--------------|
|----------------2"-----7"------------------4"-----9"---------------|
[ Tab from: http://www.guitartabs.cc/tabs/u/unleashed/death_metal_victory_tab.html ]
Solo
|-------------------------------------------------------------------|
|-------------------------------------------------------------------|
|-------------------------7"-9"-10"-9"-12"-10"-9"-10"---------------|
|-------------5"-7"-8"-7"-------------------------------------------|
|-3"-5"-6"-5"-------------------------------------------------------|
|-------------------------------------------------------------------|

|-------------------------------------------------------------------|
|---------------------------------17"-19"-20"-19"-22"-20"-19"-20"---|
|-----------------15"-17"-18"-17"-----------------------------------|
|-12"-14"-15"-14"---------------------------------------------------|
|-------------------------------------------------------------------|
|-------------------------------------------------------------------|

|-------------------------------------------------------------------|
|-20~--18-20-14~-13--13-13-13-16F-13-13-13-13-16F-13-16F------------|
|-------------------------------------------------------------------|
|-------------------------------------------------------------------|
|-------------------------------------------------------------------|
|-------------------------------------------------------------------|

|-------------------------------------------------------------------|
|-13-15F-13-12-10-9-7~----------------------------------------------|
|-------------------------------------------------------------------|
|------------------------4*-12--------------------------------------|
|-------------------------------------------------------------------|
|-------------------------------------------------------------------|
*Pick Scrape up to 12

Riff 3
|-------------------------------------------------------------------|
|-------------------------------------------------------------------|
|-------------------------------------------------------------------|
|--5----------------------------------------------------------------|
|--3----------------------------------------------------------------|
|-------------------------------------------------------------------|

Riff 1 Played: 1
Riff 2 Played: 3
Riff 1 Played: 1
Riff 2 Played: 3
Riff 1 played: 1
Solo
Riff 1 Played: 1
Riff 2 Played: 3
Riff 1 Played: 1
Riff 3 played: 1
Comments