Unleashed - Before The Creation Of Time Chords & Tabs

 

Before The Creation Of Time Chords & Tabs

Unleashed Chords & Tabs

Version: 1 Type: Tab 0 ratings
1 star 2 stars 3 stars 4 stars 5 stars
comments

Before The Creation Of Time Tab

Tuning: 2.5 steps down (B)

Riff:1                         Riff:2
|-----------------------------|-------------------------------------|
|-----------------------------|-------------------------------------|
|-----------------------------|-------------------------------------|
|-----------------------------|-------------------------------------|
|-2-----5-----8-----5---7---8-|-2---------3-------444333----------11|
|-0-000-3-000-6-000---0---0---|-0-000-000-1-000222------000-000-11--|

Riff:3                                           Riff:4a
|------------------------------------------------|------------------|
|------------------------------------------------|------------------|
|------------------------------------------------|------------------|
|-------888------101010-------888----------------|-9--5--8--4-------|
|-777888---888777-------777888---888777888777666-|-7--3--6--2-------|
|------------------------------------------------|------------------|
[ Tab from: http://www.guitartabs.cc/tabs/u/unleashed/before_the_creation_of_time_tab.html ]
Riff:4b                              Riff:4c
|-----------------------------------|-------------------------------|
|-----------------------------------|-------------------------------|
|---9-10-9----5-6-5---8-9-8---4-5-4-|---9-10---6-5---8-9---5-4------|
|-----------------------------------|-------------------------------|
|-7---------3-------6-------2-------|-7------3-----6-----2----------|
|-----------------------------------|-------------------------------|

Cont.                       Riff:5
|--------------------------|----------------------------------------|
|--------------------------|----------------------------------------|
|--------------------------|----------------------------------------|
|---9-10---6-5---8-9---5-4-|-------h-p--3-------h-p--3-------h-p--2-|
|-7------3-----6-----2-----|------2-3-2-1------2-3-2-1------2-3-2---|
|--------------------------|-00-0---------00-0---------00-0---------|

Cont.                                                    Fill:1
|-------------------------------------------------------|-----------|
|-------------------------------------------------------|-----------|
|-------------------------------------------------------|-----------|
|--------------h-p--3-------h-p--3-------h-p--2----333--|--2--------|
|-111---------2-3-2-1------2-3-2-1------2-3-2---111-----|--2--------|
|----111-00-0---------00-0---------00-0-----------------|--0--------|
Comments