Unknown World - Waiting In Line Chords & Tabs

 

Waiting In Line Chords & Tabs

Unknown World Chords & Tabs

Version: 1 Type: Tab 0 ratings
1 star 2 stars 3 stars 4 stars 5 stars
comments

Waiting In Line Tab

                            -WAITING IN LINE-
                             BY UNKNOWN WORLD
                             WRITTEN AND TABBED BY CHRIS G.

STANDARD TUNNING

INTRO       (PLAY 2 TIMES) (KINDOV FAST)
----------------------------------------------------------------------------
----------------------------------------------------------------------------
----------------------------------------------------------------------------
---------5-------------------5----------------------------------------------
---0-2-3-----0-2-3-5---0-2-3-----0-2-3-5-3-0--------------------------------
-3---------3---------3----------3--------------WAIT 2 SECONDS AFTER THE 1ST TIME


VERSES (strum hard) (strum the 2/3 faster)
-----------------------------------------------------------------------------
-----------------------------------------------------------------------------
--------------------77------77-----------------------------------------------
-33--------33-------77------77-----------------------------------------------
-33--x-222-33-x-222-55-x-22255-x-222-----------------------------------------
-11--x-333-11-x-333-55-x-33355-x-333-----------------------------------------
[ Tab from: http://www.guitartabs.cc/tabs/u/unknown_world/waiting_in_line_tab.html ]
chorus             (3 times)
-----------------------------------------------------------------------------
-----------------------------------------------------------------------------
-----------------------------------------------------------------------------
-333333333-555555555---------------------------------------------------------
-333333333-555555555---------------------------------------------------------
-111111111-333333333---------------------------------------------------------

play verse again

then play chorus again

interlude
-----------------the interlude is the same thing as the intro exept in
distortion, and u dont wait the 2 seconds after the 1st time and play it faster.
------------------------------------------------------------------------
------------------------------------------------------------------------
------------------------------------------------------------------------
------------------------------------------------------------------------

outro (softly)
-------------------------------3------------------------------------------
-----------------------------3--------------------------------------------
---------------------------0----------------------------------------------
-------------------------0------------------------------------------------
---------------0-2-3---2--------------------------------------------------
-------------3-------3----------------------------------------------------

thats it! if u have any questions or comments email us at grantc1020@aol.com

and to let everyone no our bands name has changed to FULL THRODEL. peace!!!!!
Comments