Unknown World - Medal-punk-rock Chords & Tabs

 

Medal-punk-rock Chords & Tabs

Unknown World Chords & Tabs

Version: 1 Type: Tab 0 ratings
1 star 2 stars 3 stars 4 stars 5 stars
comments

Medal-punk-rock Tab

   
                       - UNKNOWN WORLD -
                         MEDAL-PUNK-ROCK
                         TABBED AND WRITTEN BY CHRIS G.

DROP D

Intro/verses
---------------------------------------------------------------------
---------------------------------------------------------------------
---------------------------------------------------------------------
--777-333-222-----555------------------------------------------------
--777-333-222-xxx-555------------------------------------------------
--777-333-222-xxx-555------------------------------------------------

[ Tab from: http://www.guitartabs.cc/tabs/u/unknown_world/medal_punk_rock_tab.html ]
Chorus    play 5 times.                 play this at the end of the 5th time
---------------     14-12-12---------   14h17-14-12-9----------------
12-14-14-12-14-14----------------------------------------------------
---------------------------------------------------------------------
---------------------------------------------------------------------
---------------------------------------------------------------------
---------------------------------------------------------------------

Interlude      play 8 times.  (drums kick in after the 3rd times playin it)
----------------------------------------------------------------------
----------------------------------------------------------------------
-------6--------------------------------------------------------------
---4-x-7-2------------------------------------------------------------
---4-x-7-2------------------------------------------------------------
----------------------------------------------------------------------

this song is an awsome song. its one of my bands best ones!
if u have any questions email my band at grantc1020@aol.com
Comments