Unknown World - Clean Yourself Chords & Tabs

 

Clean Yourself Chords & Tabs

Unknown World Chords & Tabs

Version: 1 Type: Tab 0 ratings
1 star 2 stars 3 stars 4 stars 5 stars
comments

Clean Yourself Tab

                                    -CLEAN YOURSELF-(acoustic)
                                     BY FULL THRODEL(THATS OUR NEW NAME)
                                     TABBED AND WRITTEN BY CHRIS G.
          d=strum down
          u=strum up
sstandard tunning   this song is played with a acoustic guitar.

Intro    kindov fast    (play intro 2 times)    
-------------3-------------------   2--four times--------------------------
-------------3-------------------   3--------------------------------------
-------------0-----------   0-2-0-0-2--------------------------------------
-----0-2-0-0-0-four times--------------------------------------------------
-------------2-------------------------------------------------------------
-------------3-------------------------------------------------------------


verses    fast (do each part 2 times)
--------------3-d-d-d-d-u-d-----------2-d-d-d-d-u-d------------------------
--------------3-----------------------3------------------------------------
--------------0-----------------------2------------------------------------
--------------0------------------------------------------------------------
--------------2------------------------------------------------------------
--------------3------------------------------------------------------------

[ Tab from: http://www.guitartabs.cc/tabs/u/unknown_world/clean_yourself_tab.html ]
Chorus            medium 
---------------------------------------------------------------------------
---------------------------------------------------------------------------
-44444444-22222222-11111111-22222222---------------------------------------
-22222222-44444444-22222222-22222222---------------------------------------
----------44444444-22222222------------------------------------------------
---------------------------------------------------------------------------

interlude     2 times
----------------------------------------------------------------------------
---0-----0-----0-----0-----0-----0-----0----- 0-----------------------------
----4-----4-----4-----4-----7-----7----- 7----- 7---------------------------
-2----2-----2-----2------5--- 5----- 5-----5--------------------------------
----------------------------------------------------------------------------
----------------------------------------------------------------------------

outro    softly
------------------------3------------------------------------------------
----------------------3--------------------------------------------------
--------------------0----------------------------------------------------
------------------0------------------------------------------------------
----------------2--------------------------------------------------------
--------------3----------------------------------------------------------

thats it. if u have any questions email us at grantc1020@aol.com
Comments