Unkle - Rabbit In Your Headlights Chords & Tabs

 

Rabbit In Your Headlights Chords & Tabs

Unkle Chords & Tabs

Version: 1 Type: Bass Tab 0 ratings
1 star 2 stars 3 stars 4 stars 5 stars
comments

Rabbit In Your Headlights Bass Tab

Song: Rabbit in your headlights
Artist: Unkle (feat. Thom York)
Album: Unkle - Psyence Fiction
Tabbed by: Cameron Hines (akira00_@hotmail.com)
http://www.basstabarchive.com

Standard Tunning!

Verse
G|-------------------------------------------|
D|-------------------------------------------|
A|--7---5-7--7----5-7--7-------7-------------|
E|----0--------0---------0-3-5---0-5-7-------|
[ Tab from: http://www.guitartabs.cc/tabs/u/unkle/rabbit_in_your_headlights_btab.html ]
Inturlude
G|-----------------------|
D|-----------------------|
A|-12-12--12-12--12-12---|
E|-----------------------|

Chorus
G|----------------------------------------|
D|----------------------------------------|
A|----------------------------------------|
E|-9-7-7--7-5-5--5-4-4--4-0-0-0-0--0-0-0--|

the chorus has an unusual timming so listen to the song and get use to the 
beat.
play the bass at the same rhythm as the drums.

Comments