United Live - What The World Will Never Take Chords & Tabs

 

What The World Will Never Take Chords & Tabs

United Live Chords & Tabs

Version: 2 Type: Tab

What The World Will Never Take Tab

Tuning: Standard
Tabed by Aaron Yong
AKA Roker92
A_a_r_o_n_y@hotmail.com

Intro: x4
  x2                   x2
e|--------------------|--------------------|
B|--------------------|--------------------|
G|--------------------|--------------------|
D|-------7-7-6-6-6h7--|-------7-7-6-6-6h7--|
A|--0-0---------------|--5-5---------------|
E|--------------------|--------------------|

Riff: x2

e|-----------------------------------|
B|-22-0-2-2-0-2----------------------|
G|-----------------------------------|
D|-----------------------------------|
A|-----------------------------------|
E|-----------------------------------|

Chorus: x1

e|----------------------------------------------------|
B|----------------------------------------------------|
G|--------------------7-7777--11-11--------777--------|
D|--7-77777777777777--7-7777--11-11--9999--777--7-----|
A|--7-77777777777777--5-5555--9--9---9999--555--7-----|
E|--5-55555555555555-----------------7777-------5-----|

e|----------------------------------------------------|
B|----------------------------------------------------|
G|-------------------11--11--11--11--------777--------|
D|--7-77777777777777-11--11--11--11--9--9--777--7-----|
A|--7-77777777777777-9---9---9---9---9--9--555--7-----|
E|--5-55555555555555-----------------7--7-------5-----|

Intro: x2
  x2                   x2
e|--------------------|--------------------|
B|--------------------|--------------------|
G|--------------------|--------------------|
D|-------7-7-6-6-6h7--|-------7-7-6-6-6h7--|
A|--0-0---------------|--5-5---------------|
E|--------------------|--------------------|

Riff: x2

e|-----------------------------------|
B|-22-0-2-2-0-2----------------------|
G|-----------------------------------|
D|-----------------------------------|
A|-----------------------------------|
E|-----------------------------------|

Chorus: x4

e|----------------------------------------------------|
B|----------------------------------------------------|
G|--------------------7-7777--11-11--------777--------|
D|--7-77777777777777--7-7777--11-11--9999--777--7-----|
A|--7-77777777777777--5-5555--9--9---9999--555--7-----|
E|--5-55555555555555-----------------7777-------5-----|
[ Tab from: http://www.guitartabs.cc/tabs/u/united_live/what_the_world_will_never_take_tab_ver_2.html ]
e|----------------------------------------------------|
B|----------------------------------------------------|
G|-------------------11--11--11--11--------777--------|
D|--7-77777777777777-11--11--11--11--9--9--777--7-----|
A|--7-77777777777777-9---9---9---9---9--9--555--7-----|
E|--5-55555555555555-----------------7--7-------5-----|


Solo:

e|------5-----5---5------5-7-7b-7-5------------------------------------|
B|--7-7---7-7---7----6-6-----------------------------------------------|
G|---------------------------------------6-----6---6------8-----8---8--|
D|-----------------------------------7-7---7-7---7----9-9---9-9---9----|
A|---------------------------------------------------------------------|
E|---------------------------------------------------------------------|

e|------5-----5---5------5-7-7b-7-5--|
B|--7-7---7-7---7----6-6-------------|
G|-----------------------------------|
D|-----------------------------------|
A|-----------------------------------|
E|-----------------------------------|

e|----------------------------------------------------------------------|
B|----------------------------------------------------------------------|
G|------6-----6---6------8-----8-----8-----8-----8------8---8---8-------|
D|--7-7---7-7---7----9-9---9-9---9-9---9-9---9-9---9-9-9--9---9---9-----|
A|----------------------------------------------------------------------|
E|----------------------------------------------------------------------|

Chorus: x4

e|----------------------------------------------------|
B|----------------------------------------------------|
G|--------------------7-7777--11-11--------777--------|
D|--7-77777777777777--7-7777--11-11--9999--777--7-----|
A|--7-77777777777777--5-5555--9--9---9999--555--7-----|
E|--5-55555555555555-----------------7777-------5-----|

e|----------------------------------------------------|
B|----------------------------------------------------|
G|-------------------11--11--11--11--------777--------|
D|--7-77777777777777-11--11--11--11--9--9--777--7-----|
A|--7-77777777777777-9---9---9---9---9--9--555--7-----|
E|--5-55555555555555-----------------7--7-------5-----|

Outro:

e|-----------------------------------------|
B|-----------------------------------------|
G|--------------777-----------777----------|
D|--7-77-77--777--7-77-77--777--7----------|
A|--7-77-77--555--7-77-77--555--7----------|
E|--5-55-55-------5-55-55-------5----------|