United Live - What The World Will Never Take Chords & Tabs

 

What The World Will Never Take Chords & Tabs

United Live Chords & Tabs

Version: 1 Type: Tab 0 ratings
1 star 2 stars 3 stars 4 stars 5 stars
comments

What The World Will Never Take Tab

   
Song: What The World Will Never Take
Artist: Hillsong United
Album: Look To You

Key: A


e|-----5-----5---5---5-----5-7-7b-5-|
B|-7-7---7-7---7---7---6-6----------|
G|----------------------------------|
D|----------------------------------|
A|----------------------------------|
E|----------------------------------|

e|----------------------------------|
B|----------------------------------|
G|-----6-----6---------8-----8---8--|
D|-7-7---7-7---7-7-9-9---9-9---9----|
A|----------------------------------|
E|----------------------------------|
[ Tab from: http://www.guitartabs.cc/tabs/u/united_live/what_the_world_will_never_take_tab.html ]
e|-----5-----5---5---5-----5-7-7b-5-|
B|-7-7---7-7---7---7---6-6----------|
G|----------------------------------|
D|----------------------------------|
A|----------------------------------|
E|----------------------------------|

e|----------------------------------|
B|----------------------------------|
G|-----6-----6---------8------------|
D|-7-7---7-7---7-7-9-9---9-9-9------|
A|----------------------------------|
E|----------------------------------|

e|----------------------------------|
B|----------------------------------|
G|-8---8-----8-----8---8-----8------|
D|---9---9-9---9-9---9---9-9---9-9--|
A|----------------------------------|
E|----------------------------------|

| /  slide up
| \  slide down
| h  hammer-on
| p  pull-off
| ~  vibrato
| +  harmonic
| x  Mute note
===============================================================================

Tabbed by: J F - element
Email: jf.element@gmail.com
Comments