United Live - Tell The World Chords & Tabs

 

Tell The World Chords & Tabs

United Live Chords & Tabs

Version: 2 Type: Tab

Tell The World Tab

   
-------------------------------------------------------------------------------
			     Tell the World - Hillsong United
-------------------------------------------------------------------------------
Tabbed by: Luke Whiteman
Date: December 17, 2005 at 1:07 AM EST
Email: scarsthatsave@charter.net

Arranged for 2 Guitars, Bass and Drums. You can find the bass tab anywhere else.
Not very sure about the ending solo but it goes well. Please don't grade me down 
if you think that is bad. Enjoy Guys!!!!!

Tuning: Standard

(Bass Intro)
e|-----------------------------|
B|-----------------------------|
G|-----------------------------|
D|-4-4-4-2-2-2-----------------|
A|-------------4-4-5-5-5-4-4-0-|
E|-----------------------------|

(Guitar Intro) - Bends are full steps up       Hold for 4 beats over the verse guitar
e|------------------------------------------|  |-----|
B|-7--7--7--7--7--7--7--7-7-7-7-7\6-6-------|  |-7---|
G|b9-b9-b9-b9-b9-b9-b9-b9-7-7-7-7\6-6-------|x4|b9---|
D|------------------------------------------|  |-----|
A|------------------------------------------|  |-----|
E|------------------------------------------|  |-----|

(Verse pt. 1) (Don't want to just stand here and shout your praise...)
Guitar 1
e|---------------------------------------------------------------------------|
B|---------------------------------------------------------------------------|
G|-11-11-11-11-11-11----------11-11-11-11-11-11/16-16-16\14 14\11------------|x2
D|--9--9--9--9--9--9-11-11-11--9--9--9--9--9--9/14-14-14\12-12\-9------------|
A|--------------------9--9--9------------------------------------------------|
E|---------------------------------------------------------------------------|

(Bridge) (And all I want in this lifetime is you...)
Guitar 1
e|---------------------------------------------------------------------------|
B|---------------------------------------------------------------------------|
G|-------14-11----11-11-11-11-11-11-11-11------------------------------------|x4
D|-11-11-------12-11-11-11-11-11-11-11-11------------------------------------|
A|---------------------------------------------------------------------------|
E|---------------------------------------------------------------------------|

Guitar 2 (False harmonic on the ending A)
e|---------------------------------------------------------------------------|
B|---------------------------------------------------------------------------|
G|---------------------------------------------------------------------------|x4
D|---------------------------------------------------------------------------|
A|-9-9-9-7-7-7-4-4-5-5-5-4-4-0-0*--------------------------------------------|
E|---------------------------------------------------------------------------|

(Chorus)
e|---------------------------------------------------------------------------|
B|---------------------------------------------------------------------------|
G|---------9-9-9-9---------7-7-7-7-------------------------------------------|x2
D|-7-7-7-7-9-9-9-9-4-4-4-4-7-7-7-7-------------------------------------------|
A|-7-7-7-7-7-7-7-7-4-4-4-4-5-5-5-5-------------------------------------------|
E|-5-5-5-5---------2-2-2-2---------------------------------------------------|

(Guitar Intro) - Bends are full steps up       Hold for 4 beats over the verse guitar
e|------------------------------------------|  |-----|
B|-7--7--7--7--7--7--7--7-7-7-7-7\6-6-------|  |-7---|
G|b9-b9-b9-b9-b9-b9-b9-b9-7-7-7-7\6-6-------|x2|b9---|
D|------------------------------------------|  |-----|
A|------------------------------------------|  |-----|
E|------------------------------------------|  |-----|

(Verse pt. 2) (Don't want to just stand here and shout your praise...)
Guitar 1
e|---------------------------------------------------------------------------|
B|---------------------------------------------------------------------------|
G|-11-11-11-11-11-11----------11-11-11-11-11-11/16-16-16\14 14\11------------|x2
D|--9--9--9--9--9--9-11-11-11--9--9--9--9--9--9/14-14-14\12-12\-9------------|
A|--------------------9--9--9------------------------------------------------|
E|---------------------------------------------------------------------------|
[ Tab from: http://www.guitartabs.cc/tabs/u/united_live/tell_the_world_tab_ver_2.html ]
Guitar 2 (False harmonic on the ending A)
e|---------------------------------------------------------------------------|
B|---------------------------------------------------------------------------|
G|---------------------------------------------------------------------------|x2
D|---------------------------------------------------------------------------|
A|-9-9-9-7-7-7-4-4-5-5-5-4-4-0-0*--------------------------------------------|
E|---------------------------------------------------------------------------|

(Bridge) (And all I want in this lifetime is you...)
Guitar 1
e|---------------------------------------------------------------------------|
B|---------------------------------------------------------------------------|
G|-------14-11-11-11-11-11-11-11-11-11---------------------------------------|x4
D|-11-11-------11-11-11-11-11-11-11-11---------------------------------------|
A|---------------------------------------------------------------------------|
E|---------------------------------------------------------------------------|

Guitar 2 (False harmonic on the ending A)
e|---------------------------------------------------------------------------|
B|---------------------------------------------------------------------------|
G|---------------------------------------------------------------------------|x4
D|---------------------------------------------------------------------------|
A|-9-9-9-7-7-7-4-4-5-5-5-4-4-0-0*--------------------------------------------|
E|---------------------------------------------------------------------------|

(Chorus) (Tell the World that Jesus lives...)
e|---------------------------------------------------------------------------|
B|---------------------------------------------------------------------------|
G|---------9-9-9-9---------7-7-7-7-------------------------------------------|x4
D|-7-7-7-7-9-9-9-9-4-4-4-4-7-7-7-7-------------------------------------------|
A|-7-7-7-7-7-7-7-7-4-4-4-4-5-5-5-5-------------------------------------------|
E|-5-5-5-5---------2-2-2-2---------------------------------------------------|


(Drum Solo)
(Drum Solo) (Come on, Come on we'll tell the world about you) x2
(Drum & Bass Solo)(Come on, Come on we'll tell the world about you) x2
(Drum, Bass & Guitar v)
Guitar 1
e|---------------------------------------------------------------------------|
B|---------------------------------------------------------------------------|
G|-------14-11-11-11-11-11-11-11-11-11---------------------------------------|x4
D|-11-11-------11-11-11-11-11-11-11-11---------------------------------------|
A|---------------------------------------------------------------------------|
E|---------------------------------------------------------------------------|

(Chorus) (Tell the World that Jesus lives...)
e|---------------------------------------------------------------------------|
B|---------------------------------------------------------------------------|
G|---------9-9-9-9---------7-7-7-7-------------------------------------------|x4
D|-7-7-7-7-9-9-9-9-4-4-4-4-7-7-7-7-------------------------------------------|
A|-7-7-7-7-7-7-7-7-4-4-4-4-5-5-5-5-------------------------------------------|
E|-5-5-5-5---------2-2-2-2---------------------------------------------------|

(Chorus) (Come on, Come on we'll tell the world about you)
Guitar 1
e|---------------------------------------------------------------------------|
B|---------------------------------------------------------------------------|
G|---------9-9-9-9---------7-7-7-7-------------------------------------------|x4
D|-7-7-7-7-9-9-9-9-4-4-4-4-7-7-7-7-------------------------------------------|
A|-7-7-7-7-7-7-7-7-4-4-4-4-5-5-5-5-------------------------------------------|
E|-5-5-5-5---------2-2-2-2---------------------------------------------------|

Guitar 2
e|---------------------------------------21-22--|
B|----------22-22-19-19----------22-22-21-------|
G|-18-18-18-------------18-18-18----------------|x4
D|----------------------------------------------|
A|----------------------------------------------|
E|----------------------------------------------|


| /  slide up
| \  slide down
| b  bend
| *  harmonic
===============================================================================