United Live - Tell The World Chords & Tabs

 

Tell The World Chords & Tabs

United Live Chords & Tabs

Version: 1 Type: Tab

Tell The World Tab

   
Hey guys! Im tabbing basically tha whole song the way tha team plays it and i met em!! 
yay!! um...yeh God  bless whoever uses this to worship Him! Prash

Tell the world

Key- A

INTRO:

Bass:
E----------------------------------------------------------------|
B----------------------------------------------------------------|
G----------------------------------------------------------------|
D----------------------------------------------------------------|    X6
A-9-9-9-7-7-7-4-4-5-5-5-4-4-4------------------------------------|
E----------------------------5-5---------------------------------|

Guitar 1:
[ Tab from: http://www.guitartabs.cc/tabs/u/united_live/tell_the_world_tab.html ]
E-------------------------------------------------------------------------|
B-7-------7--7------------------------------------------------------------|
G---9b11--7--6------------------------------------------------------  X 4-|
D-------------------------------------------------------------------------|
A-------------------------------------------------------------------------|
E-------------------------------------------------------------------------|

Guitar 2:

F#m D F#m B-A-G# ( for the vs)

PC:

GUiT 1:
F#m D

Guit 2:

F#m-E-C#-D-C#-A


Chorus:
A E F# D

thats about it if you can figure out tha rest ilt ez i gotta go 2 church ow cya God bless

Prash