United Live - Take It All Chords & Tabs

 

Take It All Chords & Tabs

United Live Chords & Tabs

Version: 2 Type: Tab

Take It All Tab

ok well this song rox!!! and this is how my youth group band playz it...


(verse 1)(repeat)
guitar 1                guitar 2 comes in 1/2 way (bass plays lowest note)
E|---999-777-666-14141414-|-----------------------------------------------|
b|------------------------|-----------------------------------------------|
g|------------------------|---------------7-------------------------------|
d|------------------------|---888-888-88875-------------------------------|
a|------------------------|---888-888-88875-------------------------------|
e|------------------------|---666-666-6665--------------------------------|


then play verse 2(same)
[ Tab from: http://www.guitartabs.cc/tabs/u/united_live/take_it_all_tab_ver_2.html ]
chorus(both guitars--bass plays lowest note)
|-----------------------------------------------------------------------|
|-----------------------------------------------------------------------|
|-44444444----------------------------44444444----------6-6-666-6-6-666-|
|-44444444-44444444-66666666-22222222-22222222-44444444-6-6-666-6-6-666-|
|-22222222-44444444-44444444-00000000-22222222-44444444-4-4-444-4-4-444-|
-----------22222222-44444444-00000000----------22222222-----------------|

play verse1 then chorus twice

bridge both guitars (bass plays lowest note)
|-------------------------------------------|--------|
|------------------play-twice-then----------|--------|
|-4-------66----------66------66------------|-4------|
|-4--x16--66-66-44-22-66-66-4-66-66-44-22---|-4--x16-|
|-2-------44-66-44-22-44-66-4-44-66-44-22---|-2------|
|------------44-22-00----44-2----44-22-00---|--------|

ok now play verse 1 with only bass then chorus x4 for outro