United Live - Salvation Is Here Chords & Tabs

 

Salvation Is Here Chords & Tabs

United Live Chords & Tabs

Version: 1 Type: Bass Tab

Salvation Is Here Bass Tab

   
Intro

G|---------------------------------------------------------------------------|
D|---------------------------------------------------------------------------|
A|-14-1414141414-14\p-14—1414-121414-12-1414---------------------------------|
E|---------------------------------------------------------------------------|


Verses
G|---------------------------------------------------------------------------|
D|---------------------------------------------------------------------------|
A|141414---------------------------------------------------------------------|
E|------161616-141414-12121212-----------------------------------------------|
2X

 Second part of verse
G|---------------------------------------------------------------------------|
D|---------------------------------------------------------------------------|
A|222--------------------77777-222-------------222---------------------------|
E|---444-222-0000-44-444----------000-222-4444----000-222-4444---------------|
[ Tab from: http://www.guitartabs.cc/tabs/u/united_live/salvation_is_here_btab.html ]
Then play chorus in between verses.

Chorus
G|---------------------------------------------------------------------------|
D|---------------------------------------------------------------------------|
A|22222222---------------------------22222222---------44444444-7-77-77-------|
E|--------00000000-22222222-44444444---------00000000------------------------|


Interlude/bridge
G|--16-18-16--16----------18-16---------16----16-----16-20-18-16-18----------|
D|18--------18------18-16------16-14-18----18----18--------------------------|
A|---------------14--------------------------------16------------------------|
E|---------------------------------------------------------------------------|
Each note is played multiple times, if you’re not fast enough, a digital delay pedal sounds just as good.

Into chorus
End with intro.


| /  slide up
| \  slide down
| h  hammer-on
| p  pull-off
| ~  vibrato
| +  harmonic
| x  Mute note
===============================================================================