United Live - One Way Chords & Tabs

 

One Way Chords & Tabs

United Live Chords & Tabs

Version: 3 Type: Tab 0 ratings
1 star 2 stars 3 stars 4 stars 5 stars
comments

One Way Tab

United Live-One Way
Tabbed by: Tan Chi Heng
This is the first song I've ever tabbed, so I hope it's ok. Any mistakes pls send 2
doggynfrog@hotmail.com. Pls rate it too. Thanks!
Standard Tuning
/-slide
...-palm mute
~-hold

Intro
|---------------------------------------------------------------|
|---------------------------------------------------------------|
|---------------------------------------------------------------|
|---------------------------------------------------------------|
|-6(x7)6/9(x7)-9/6(x7)-6/7-7-6-6-4-4-6-7-9(x16)-7(x13)-9-9-9----|
|---------------------------------------------------------------|

Verse 1
Guitar 1(Distortion)X2
|---------------------------------------------------------------|
|---------------------------------------------------------------|
|---------------------------------------------------------------|
|---------------------------------------------------------------|
|-6(x14)-6/7/6-6(x14)-6/7/9(x15)-9/7(13)-9-9-9------------------|
|---------------------------------------------------------------|

Guitar 2(Distortion/Palm muted)X2
|---------------------------------------------------------------|
|---------------------------------------------------------------|
|-8------8/9/8-8------8/11-------11/9---------------------------|
|-8(X14)-8/9/8-8(X14)-8/11(X15)--11/9(X16)----------------------|
|-6------6/7/6-6------8/9---------9/7---------------------------|
|---------------------------------------------------------------|
 
Chorus 1
Guitar 1(Distortion)
<-----------X2------------>
|-------------------------|-------------------------------------|
|-------------------------|-------------------------------------|
|-8(x8)-6(x8)-8(x8)-9(x8)-|-8-8-6-8-8-8-6-8-8-8-6-8-9-8-6-8-----|
|-------------------------|-------------------------------------|
|-------------------------|-------------------------------------|
|-------------------------|-------------------------------------|

|--------------------------------|
|--------------------------------|
|-8-8-6-8-8-8-6-8-8-8-6-8-9-8-6--|
|--------------------------------|
|--------------------------------|
|--------------------------------|

Guitar 2(Distortion)
<-----------X2-----------><-----------------X2------------------>
|-------------------------|-------------------------------------|
|-------------------------|-------------------------------------|
|-8-----6-----8-----9-----|-8-8-8-8-8-8-8-8-6-6-6-6-6-6-6-6-----|
|-8(x8)-6(x8)-8(x8)-9(x8)-|-8-8-8-8-8-8-8-8-6-6-6-6-6-6-6-6-----|
|-6-----4-----6-----7-----|-6-6-6-6-6-6-6-6-4-4-4-4-4-4-4-4-----|
|-------------------------|-------------------------------------|
|-------------------------|-------------------------------------|


Verse 2
Guitar 1(Distortion)X2
|---------------------------------------------------------------|
|---------------------------------------------------------------|
|---------------------------------------------------------------|
|---------------------------------------------------------------|
|-6(x14)-6/7/6-6(x14)-6/7/9(x15)-9/7(13)-9-9-9------------------|
|---------------------------------------------------------------|

Guitar 2(Distortion/Palm muted)X2
|---------------------------------------------------------------|
|---------------------------------------------------------------|
|-8------8/9/8-8------8/11-------11/9---------------------------|
|-8(X14)-8/9/8-8(X14)-8/11(X15)--11/9(X16)----------------------|
|-6------6/7/6-6------8/9---------9/7---------------------------|
|---------------------------------------------------------------|

Chorus 2
Both Guitars(Distortion)X4
|-----------------------------------------------------------------|
|-----------------------------------------------------------------|
|-8-8-8-8-8-8-8-8-6-6-6-6-6-6-6-6-8-8-8-8-8-8-8-8-9-9-9-9-9-9-9-9-|
|-8-8-8-8-8-8-8-8-6-6-6-6-6-6-6-6-8-8-8-8-8-8-8-8-9-9-9-9-9-9-9-9-|
|-6-6-6-6-6-6-6-6-4-4-4-4-4-4-4-4-6-6-6-6-6-6-6-6-7-7-7-7-7-7-7-7-|
|-----------------------------------------------------------------|

Bridge
Guitar 1
|-----------------------------------------------------------------------------|
|-----------------------------------------------------------------------------|
|-8-8-8-8-8/66-6-6-6/8-8-8-8--8/9-9--9-9-9/8-8--8-8--8/6-6-6-6-6/44-|
|-8-8-8-8-8/6-6-6-6-6/8-8--8-8--8/9-9--9-9--9/8-8--8-8--8/6-6--6-6--6/44-|
|-6-6-6-6-6/4-4--4-4--4/6-6--6-6--6/7-7--7-7--7/6-6--6-6--6/4-4--4-4-4/22-|
|-----------------------------------------------------------------------------|      

Guitar 2
|-----------------------------------------------------------------------------|
|-----------------------------------------------------------------------------|
|-----------------------------------------------------------------------------|
|-----------------------------------------------------------------------------|
|--------------------------------------------------6-3-4-6-4-6--3-4-6--2-----|
|-------------------------------------------------------------------------0-0-|

Guitar 1
|---------------------------|-------------------------------------------------|
|---------------------------|-------------------------------------------------|
|-4-4--4-4--4-4--4-4--------|-8-8-8-8-8-8-8-8-6-6-6-6-6-6-6-6-8-8-8-8-8-8-8-8-|
|-4-4-4-4--4-4--4-4--------|-8-8-8-8-8-8-8-8-6-6-6-6-6-6-6-6-8-8-8-8-8-8-8-8-|
|-2-2--2-2--2-2--2-2--------|-6-6-6-6-6-6-6-6-4-4-4-4-4-4-4-4-6-6-6-6-6-6-6-6-|
|---------------------------|-------------------------------------------------|

Guitar 2
|---------------------------|-------------------------------------------------|
|---------------------------|-------------------------------------------------|
|---------------------------|-------------------------------------------------|
|---------------------------|-------------------------------------------------|
|-2-----2-----2-----2-----2-|-6-6-6-6-6-6-6-6-4-4-4-4-4-4-4-4-6-6-6-6-6-6-6-6-|
|---0-0---0-0---0-0---0-0---|-------------------------------------------------|




[ Tab from: http://www.guitartabs.cc/tabs/u/united_live/one_way_tab_ver_3.html ]
Guitar 1
|-----------------------------------------------------------------------------|
|-----------------------------------------------------------------------------|
|-9-9-9-9-9-9-9-9-8-8-8-8-8-8-8-8-6-6-6-6-6-6-6-6-4-4-4-4-4-4-4-4-4-4-4-4-4-4-|
|-9-9-9-9-9-9-9-9-8-8-8-8-8-8-8-8-6-6-6-6-6-6-6-6-4-4-4-4-4-4-4-4-4-4-4-4-4-4-|
|-7-7-7-7-7-7-7-7-6-6-6-6-6-6-6-6-4-4-4-4-4-4-4-4-2-2-2-2-2-2-2-2-2-2-2-2-2-2-|
|-----------------------------------------------------------------------------|

Guitar 2
|-----------------------------------------------------------------------------|
|-----------------------------------------------------------------------------|
|-----------------------------------------------------------------------------|
|-----------------------------------------------------------------------------|
|-7-7-7-7-7-7-7-7---6-34-6-6--3-4-6--3-4-6--3-4-6-3-46-3-4-6--3-4-6-3-4|
|-----------------------------------------------------------------------------|

Guitar 1
|-----------------------------------------------------------------------------|
|-----------------------------------------------------------------------------|
|-4-4-8-8-8-8-8-8-8-8-6-6-6-6-6-6-6-6-8-8-8-8-8-8-8-8-9-9-9-9-9-9-9-9-8-8-8-8-|
|-4-4-8-8-8-8-8-8-8-8-6-6-6-6-6-6-6-6-8-8-8-8-8-8-8-8-9-9-9-9-9-9-9-9-8-8-8-8-|
|-2-2-6-6-6-6-6-6-6-6-4-4-4-4-4-4-4-4-6-6-6-6-6-6-6-6-7-7-7-7-7-7-7-7-6-6-6-6-|
|-----------------------------------------------------------------------------|

Guitar 2
|-----------------------------------------------------------------------------|
|-----------------------------------------------------------------------------|
|-----------------------------------------------------------------------------|
|-----------------------------------------------------------------------------|
|-2---6-6-6-6-6-6-6-6-4-4-4-4-4-4-4-4-6-6-6-6-6-6-6-6-7-7-7-7-7-7-7-7-6-6-6-6-|
|-----------------------------------------------------------------------------|

Guitar 1
|-----------------------------------------------------------------------------|
|-----------------------------------------------------------------------------|
|-8-8-8-8-6-6-6-6-6-6-6-6-4-4-4-4-4-4-4-4-4-4-4-4-4-4-4-4-8-8-8-8-8-8-8-8-6-6-|
|-8-8-8-8-6-6-6-6-6-6-6-6-4-4-4-4-4-4-4-4-4-4-4-4-4-4-4-4-8-8-8-8-8-8-8-8-6-6-|
|-6-6-6-6-4-4-4-4-4-4-4-4-2-2-2-2-2-2-2-2-2-2-2-2-2-2-2-2-6-6-6-6-6-6-6-6-4-4-|
|-----------------------------------------------------------------------------|

Guitar 2
|-----------------------------------------------------------------------------|
|-----------------------------------------------------------------------------|
|-----------------------------------------------------------------------------|
|-----------------------------------------------------------------------------|
|-6-6-6-6-4-4-4-4-4-44-4-2-2-2-2-2-2-2-2-2-2-2-2-2-2-2-2-6-6-6-6-6-6-6-6-4-4-|
|-----------------------------------------------------------------------------|

Guitar 1
|-----------------------------------------------------------------------------|
|-----------------------------------------------------------------------------|
|-6-6-6-6-6-6-8-8-8-8-8-8-8-8-9-9-9-9-9-9-9-9-8-8-8-8-8-8-8-8-6-6-6-6-6-6-6-6-|
|-6-6-6-6-6-6-8-8-8-8-8-8-8-8-9-9-9-9-9-9-9-9-8-8-8-8-8-8-8-8-6-6-6-6-6-6-6-6-|
|-4-4-4-4-4-4-6-6-6-6-6-6-6-6-7-7-7-7-7-7-7-7-6-6-6-6-6-6-6-6-4-4-4-4-4-4-4-4-|
|-----------------------------------------------------------------------------|

Guitar 2
|-----------------------------------------------------------------------------|
|-----------------------------------------------------------------------------|
|-----------------------------------------------------------------------------|
|-----------------------------------------------------------------------------|
|-4-4-4-4-4-4-6-6-6-6-6-6-6-6-7-7-7-7-7-7-7-7-6-6-6-6-6-6-6-6-4-4-4-4-4-4-4-4-|
|-----------------------------------------------------------------------------|
Guitar 1
|---------------------------------|
|---------------------------------|
|-9-9-9-9-9-9-9-9-9-9-9-9-9-9-9-9-|
|-9-9-9-9-9-9-9-9-9-9-9-9-9-9-9-9-|
|-7-7-7-7-7-7-7-7-7-7-7-7-7-7-7-7-|
|---------------------------------|

Guitar 2
|---------------------------------|
|---------------------------------|
|-9-9-9-9-9-9-9-9-9-9-9-9-9-9-9-9-|
|-9-9-9-9-9-9-9-9-9-9-9-9-9-9-9-9-|
|-7-7-7-7-7-7-7-7-7-7-7-7-7-7-7-7-|
|---------------------------------|

Chorus 3
Guitar 1(Distortion)X2
|-----------------------------------------------------------------|
|-----------------------------------------------------------------|
|-8-8-8-x-x-x-x-x-6-6-6-x-x-x-x-x-8-8-8-8-8-8-8-8-9-9-9-9-9-9-9-9-|
|-8-8-8-x-x-x-x-x-6-6-6-x-x-x-x-x-8-8-8-8-8-8-8-8-9-9-9-9-9-9-9-9-|
|-6-6-6-x-x-x-x-x-4-4-4-x-x-x-x-x-6-6-6-6-6-6-6-6-7-7-7-7-7-7-7-7-|
|-----------------------------------------------------------------|

Guitar 2(Distortion)X2
|-----------------------------------------------------------------|
|-----------------------------------------------------------------|
|-8-8-8-x-x-x-x-x-6-6-6-x-x-x-x-x-8-8-8-8-8-8-8-8-9-9-9-9-9-9-9-9-|
|-8-8-8-x-x-x-x-x-6-6-6-x-x-x-x-x-8-8-8-8-8-8-8-8-9-9-9-9-9-9-9-9-|
|-6-6-6-x-x-x-x-x-4-4-4-x-x-x-x-x-6-6-6-6-6-6-6-6-7-7-7-7-7-7-7-7-|
|-----------------------------------------------------------------|

Outro
Both Guitars(Distortion)
|-----------------------------------------------------------------|
|-----------------------------------------------------------------|
|-8-8-8-8-8-8-8-8-6-6-6-6-6-6-6-6-8-8-8-8-8-8-8-8-9-9-9-9-9-9-9-9-|
|-8-8-8-8-8-8-8-8-6-6-6-6-6-6-6-6-8-8-8-8-8-8-8-8-9-9-9-9-9-9-9-9-|
|-6-6-6-6-6-6-6-6-4-4-4-4-4-4-4-4-6-6-6-6-6-6-6-6-7-7-7-7-7-7-7-7-|
|-----------------------------------------------------------------|

Both Guitars(Distortion)
|-----------------------------------------------------------------|
|-----------------------------------------------------------------|
|-8-8-8-8-8-8-8-8-6-6-6-6-6-6-6-6-8-8-8-8-8-8-8-8-9-9-9-9-9-9-9-9-|
|-8-8-8-8-8-8-8-8-6-6-6-6-6-6-6-6-8-8-8-8-8-8-8-8-9-9-9-9-9-9-9-9-|
|-6-6-6-6-6-6-6-6-4-4-4-4-4-4-4-4-6-6-6-6-6-6-6-6-7-7-7-7-7-7-7-7-|
|-----------------------------------------------------------------|

Both Guitars(Distortion)
|--------------------|
|--------------------|
|-9-9-9-9-9-9-9-9-8~-|
|-9-9-9-9-9-9-9-9-8~-|
|-7-7-7-7-7-7-7-7-6-~|
|--------------------|
Comments