United Live - From The Inside Out Chords & Tabs

 

From The Inside Out Chords & Tabs

United Live Chords & Tabs

Version: 1 Type: Tab

From The Inside Out Tab

   
THIS IS MY FIRST TAB.....BUT I THINK ITS IT CORRECT........


Intro: F-C-G
e------------12--------12------------------------------|
b-------13----------13----13-15-12---------------------|
g-12h14---14-----12----------------12------------------|
d------------------------------------------------------|
a------------------------------------------------------|
e------------------------------------------------------|

VERSE 1
F-C-G 2X
Am-F-C-G 2X

INTRO AGAIN BUT ONLY 2X

VERSE 2
F-C-G 2X
Am-F-C-G 2X

CHORUS 1
F-C-Am-G
F-Am-G-D

INTRO 2X

VERSE 2

CHORUS 1
CHORUS 2: THE EVERLASTING PART GET LOUDER
Am-F-C-G 2X
C-F-G-Am=F=G=F=G

SOLO CHORDS

F-Am-G-C-Am-G-F

Solo-
[ Tab from: http://www.guitartabs.cc/tabs/u/united_live/from_the_inside_out_tab.html ]
e-(16x)----(16x)-------------------------------------------------|
b-13-13----1716---12h13----------13h12---------------------------|
g-14h12----17----------14/16/12--------14-14/16------------------|
d------------------------------------------------15-14-12~~~-----|
a----------------------------------------------------------------|


e-----(12)-I--------------17-----17-----17----17-----17----17-------19--|
b-(13)-----I13--12---17--15---15-----15----15----15-----15----15/17-----|
g----------I14--12---17--17---------------------------------------------|
d----------I---^----------^---------------------------------------------|
a----------I---^----------^---------------------------------------------|
e-----(go between these 2)-(do the same)--------------------------------|

REPEAT CHORUS 1
REPEAT CHORUS 2 2X

e|--------------------5----3-----------------|
B|-----------------------------5-------------|
G|----7---5---4-------------------5----------| REPEAT FOR A COUPLE OF TIMES
D|---------------5---------------------------|
A|-------------------------------------------|
E|-------------------------------------------|


THANK YOU
GOD BLESS!!!!!!