United Live - All Day Chords & Tabs

 

All Day Chords & Tabs

United Live Chords & Tabs

Version: 2 Type: Bass Tab 0 ratings
1 star 2 stars 3 stars 4 stars 5 stars
comments

All Day Bass Tab

   
Song: All Day
Artist: Hillsong United
Album: More Than Life

Key: B

Intro/Verse:
G|---------------1-------------------|
D|-----------2-2---2-----1-2---------|
A|-------1-2---------2-2---------2-1-|
E|---4-4---------------------2-2-----|

Chorus:
G|-------------------------------------------------------------------|
D|-------------------------------------------------------------------|
A|-2-2---2/-7-7---7------------------2-2---2/-7-7---7----------------|
E|------------------7-7---7\-2-2---2------------------4-4---4/-12-12-|
[ Tab from: http://www.guitartabs.cc/tabs/u/united_live/all_day_btab_ver_2.html ]
Bridge:
G|---------------------------------|
D|---------------------------------|
A|-4-4---4-4---4-6-7-7-6-7-7-6-7-6-|
E|-----4-----4---------------------|

The build-up after the Bridge:
G|-----------------------------------------------------------------------------|
D|-----------------------------------------------------------------------------|
A|-2-2-2-2/-7-7-7-7\-2-2-2-2/-9-9-9-9\-2-2-2-2/-7-7-7-7\-----------------------|
E|-------------------------------------------------------4-4-4-4/-12-12-12-12\-|

| /  slide up
| \  slide down

===============================================================================

Tabbed by: J F - element
Email: jf.element@gmail.com
Comments