United Live - All Day Chords & Tabs

 

All Day Chords & Tabs

United Live Chords & Tabs

Version: 1 Type: Bass Tab 0 ratings
1 star 2 stars 3 stars 4 stars 5 stars
comments

All Day Bass Tab

Intro

Verse
G|------------------------------------------------------|
D|--------11--------1-2--------------11--------1-2------|
A|----1-2----1-2-22-------3-1----1-2----1-2-22-------3-1|
E|-44------------------22-----44------------------22----|

G|------------------------------------------------------|
D|--------11--------1-2--------------11--------1-2------|
A|----1-2----1-2-22-------3-1----1-2----1-2-22-------3-1|
E|-44------------------22-----44------------------22----|
[ Tab from: http://www.guitartabs.cc/tabs/u/united_live/all_day_btab.html ]
Chorus
G|------------------------------------------------------|
D|--------11--------1-2--------------11--------1-2------|
A|----1-2----1-2-22-------3-1----1-2----1-2-22-------3-1|
E|-44------------------22-----44------------------22----|

G|------------------------------------------------------|
D|--------11--------1-2--------------11--------1-2------|
A|----1-2----1-2-22-------3-1----1-2----1-2-22-------3-1|
E|-44------------------22-----44------------------22----|

Verse and Chorus are the same, the bridge is in C#.
Comments