United Live - A Reprise Chords & Tabs

 

A Reprise Chords & Tabs

United Live Chords & Tabs

Version: 1 Type: Tab

A Reprise Tab

I think thsi is [A Reprise] if not woops!!!

This is me 1st tab ever ok and i did it in liek 10 mins when i ws listnin to united we
gr8 albumn i recomend it).  After this intro there is just alota loud cords even durin
ders a 2nd guitar so if ne1 works the cords out put them on this website ok cyas enjoy i 
ive tabbed it pretty acurately..

   Repeat 2x

 - ---------------------5~-----| ---------------------9-10~--10-9-10--9-10-9|
 - 7--7--7--7--7--7--7------8~-| 7--7--7--7--7--7--7-------8--------8-------|
 - --7--7--7--7--7--7----------| --7--7--7--7--7--7-------------------------|
 - ----------------------------| -------------------------------------------|
 - ----------------------------| -------------------------------------------|
 - ----------------------------| -------------------------------------------|
 Repeat 2x
[ Tab from: http://www.guitartabs.cc/tabs/u/united_live/a_reprise_tab.html ]
 - ---------------------5------| --------------------9-10~---10~-----10~-9~-|
 - 7--7--7--7--7--7--7------8--| 7--7--7--7--7--7--7-------8~------8~-------|
 - --7--7--7--7--7--7----------| --7--7--7--7--7--7-------------------------|
 - ----------------------------| -------------------------------------------|
 - ----------------------------| -------------------------------------------|
 - ----------------------------| -------------------------------------------|

   Repeat 2x

 - ---------------------5~-----| ---------------------9-10~--10~--10-9~-----|
 - 7--7--7--7--7--7--7------8~-| 7--7--7--7--7--7--7-------8-----8----------|
 - --7--7--7--7--7--7----------| --7--7--7--7--7--7-------------------------|
 - ----------------------------| -------------------------------------------|
 - ----------------------------| -------------------------------------------|
 - ----------------------------| -------------------------------------------|

Repeat 2x
 - -----------------------5----| - ---------------------9-10---10-9-10--10-9|
 - 7--10--7--10--7--10-------8-| - 7--10--7--10--7--10-------8--------8-----|
 - --7-------7------7----------| - --7-------7-------7----------------------|
 - ----------------------------| - -----------------------------------------|
 - ----------------------------| - -----------------------------------------|
 - ----------------------------| - -----------------------------------------|