Union Underground - Turn Me On Mr Deadman Chords & Tabs

 

Turn Me On Mr Deadman Chords & Tabs

Union Underground Chords & Tabs

Version: 3 Type: Tab 0 ratings
1 star 2 stars 3 stars 4 stars 5 stars
comments

Turn Me On Mr Deadman Tab

#----------------------------------PLEASE NOTE--------------------------------#
#This file is the author's own work and represents their interpretation of the#
#song. You may only use this file for private study, scholarship, or research.#
#-----------------------------------------------------------------------------#
#-- File created with Instab - http://www.pconline.com/~smcarey/instab.html --#
#-----------------------------------------------------------------------------#

Author/Artist: Union Underground
Title: Turn Me On Mr. Deadman
Album: An Education in Rebelion
Transcribed by: Chris Valente
Email: RedhotMetallica@aol.com

Real simple song. It's awesome. Just two riffs of power chords.
Do it with heavy distortion. I can't believe no one else has tabbed this song.
[ Tab from: http://www.guitartabs.cc/tabs/u/union_underground/turn_me_on_mr_deadman_tab_ver_3.html ]
------|------|------|---------------------------------------------------------
------|------|------|---------------------------------------------------------
------|------|------|---------------------------------------------------------
-7----|-5----|-3----|-5-------------------------------------------------------
-7----|-5----|-3----|-5-------------------------------------------------------
-5----|-3----|-1----|-3-------------------------------------------------------
 There's The Verse. Palm Mute the whole thing except the very last note       

------------------------|-----------------------------------------------------
------------------------|-----------------------------------------------------
----------------------3-|-----------------------------------------------------
-5-3-5-5--3-5-5-3-5-5-3-|-5-3-5-5-3-5-5-3-5-5-2-------------------------------
-5-3-5-5--3-5-5-3-5-5-1-|-5-3-5-5-3-5-5-3-5-5-2-------------------------------
-3-1-3-3--1-3-3-1-3-3---|-3-1-3-3-1-3-3-1-3-3-0-------------------------------
  That's The chorus, i didn't do rythym... YOU DO IT, IT'S SIMPLE.            

Comments