Union Underground - Turn Me On Mr Deadman Chords & Tabs

 

Turn Me On Mr Deadman Chords & Tabs

Union Underground Chords & Tabs

Version: 2 Type: Tab 0 ratings
1 star 2 stars 3 stars 4 stars 5 stars
comments

Turn Me On Mr Deadman Tab

bandname: Union Underground 

songname: Turn me on Mr. Deadman 

tabtype: guitar 
 

The Union Underground 
"Turn me on Mr. Deadman" 
...an education in rebellion 

On a 6-string it's tuned down one step (Low to high: DGCFAD) 


Intro and Verse 
|---------------------| 
|---------------------| 
|---------------------| X8 
|-7777-6666-5555-66-6-| 
|-7777-6666-5555-66-6-| 
|-5555-5555-5555-55-5-| 
PM.... .... .... ..   ] 

Chorus 
|--------------------|---------------------| 
|--------------------|---------------------| 
|-------------555555-|-----------------5---| X2 
|-7-5/77-5/77-355555-|-7-5/77-5/77-5-7-5-5-| 
|-7-5/77-5/77-333333-|-7-5/77-5/77-5-7-3-5-| 
|-5-3/55-3/55--------|-5-3/55-3/55-3-5---3-| 
[ Tab from: http://www.guitartabs.cc/tabs/u/union_underground/turn_me_on_mr_deadman_tab_ver_2.html ]
Second Verse (There is a second guitar going with a flanger effect I think and there is also a little ending to the second verse after the 6 normal ones.) 
|---------------------| 
|------Gtr1--X6-------| 
|---------------------| 
|-7777-6666-5555-66-6-| 
|-7777-6666-5555-66-6-| 
|-5555-5555-5555-55-5-| 
PM.... .... .... ..   ] 

Bridge (The first part is done with some wierd effect like a flanger or a phaser) 
|----19----|-------------|-------| 
|-17----19-|----X3-------|-------| 
|----------|-------------|-------| 
|---X9-----|-77-55-77-57-|-55555-| 
|----------|-77-55-77-57-|-55555-| 
|----------|-55-33-55-35-|-33333-| 
PM                         ..... ] 

Chorus(In this chorus there's a few more guitar parts but I can't get them) 
|--------------------|---------------------| 
|--------------------|---------------------| 
|-------------555555-|-----------------5---| 
|-7-5/77-5/77-355555-|-7-5/77-5/77-5-7-5-5-| 
|-7-5/77-5/77-333333-|-7-5/77-5/77-5-7-3-5-| 
|-5-3/55-3/55--------|-5-3/55-3/55-3-5---3-| 

Outro 
|--------| 
|--------| 
|--------| Repeat a bunch of times 
|-555-57-| 
|-555-57-| 
|-333-32-| 
PM...    ] 

Comments