Union Underground - Turn Me On Mr Deadman Chords & Tabs

 

Turn Me On Mr Deadman Chords & Tabs

Union Underground Chords & Tabs

Version: 1 Type: Tab 0 ratings
1 star 2 stars 3 stars 4 stars 5 stars
comments

Turn Me On Mr Deadman Tab

Song: Turn me on Mr deadman
Artist: Union Underground
Album: An education in Rebellion
Tabbed by: Russell Legder

I just got this song but i think this is how it works.

x= palm muted

Verse
e------------------------------------------------------------------------------
b------------------------------------------------------------------------------
g------------------------------------------------------------------------------
d---4-4-4-4---3-3-3-3---5-5-5-5----4-4-4-4-------------------------------------
a---4-4-4-4---3-3-3-3---5-5-5-5----4-4-4-4-------------------------------------
e---2-2-2-2---1-1-1-1---3-3-3-3----2-2-2-2-------------------------------------
    x x x x   x x x x   x x x x    x x x      repeat

[ Tab from: http://www.guitartabs.cc/tabs/u/union_underground/turn_me_on_mr_deadman_tab.html ]
Chorus
e------------------------------------------------------------------------------
b------------------------------------------------------------------------------
g-----------------------6-6-6-6------------------------------------------------
d---4-x-x-4-4-x-x-4-4-x-6-6-6-6------------------------------------------------
a---4-x-x-4-4-x-x-4-4-x-4-4-4-4------------------------------------------------
e---2-x-x-2-2-x-x-2-2-x--------------------------------------------------------
		repeat

interlude
e------------------------------------------
b------------------------------------------
g------------------------------------------
d---4--------------------------------------
a---4--------------------------------------
e---2--------------------------------------
	repeat



Any corrections send to kangaroobreeder@hotmail.com

Comments