Union Underground - Revolution Man Chords & Tabs

 

Revolution Man Chords & Tabs

Union Underground Chords & Tabs

Version: 2 Type: Tab 0 ratings
1 star 2 stars 3 stars 4 stars 5 stars
comments

Revolution Man Tab

union underground
revolution man

key:
h =hammer   ~~ =vibrato

[ Tab from: http://www.guitartabs.cc/tabs/u/union_underground/revolution_man_tab_ver_2.html ]
Verse (use a wah)
          
e-------------
B-------------
G-------------    x4
D-5-5--X-X--3-
A-5-5--X-X--3-
D-5-5--X-X--3-
          
e-------------
B-------------
G-------------
D-1-1------0--    x4
A-1-1--0h1----
D-1-1---------
          
Chorus
          
e-----------------------------------------------------------------
B-----------------------------------------------------------------
G-----------------------------------------------------------------
D-5-5-1-----1-1-1-1--------3-3-0-----0-0-0-0-------5-----1~~~~~~~~
A-5-5-1-----1-1-1-1--------3-3-0-----0-0-0-0-------5-----1~~~~~~~~
D-5-5-1-----1-1-1-1--------3-3-0-----0-0-0-0---5-5-5-----1~~~~~~~~
          
e----------------------
B----------------------
G----------------------
D--------3-----0~~~~~~~
A------3-------0~~~~~~~
D----3---------0~~~~~~~
          
after second chorus
          
e-----------------------------------------
B-----------------------------------------
G-----------------------------------------
D--00----00----00----00----0-0-----1-1/3~~
A--00----00----00----00----0-0-----1-1/3~~
D--00----00----00----00----0-0-----1-1/3~~

thats it. pretty cool song.
Comments