Union Underground - Across The Nation Chords & Tabs

 

Across The Nation Chords & Tabs

Union Underground Chords & Tabs

Version: 1 Type: Tab 0 ratings
1 star 2 stars 3 stars 4 stars 5 stars
comments

Across The Nation Tab

   
Band: Union Underground
Song: Across the Nation
Album: WWF Forceable Entry
Tabbed By RustedImpact


Legend
.  = palm mute
ph = pinch harmonic
b  = bend
p  = pull off
h  = hammer on
\  = slide
nh = natural harmonic
() = ghost note

Tuning: Down 1 1/2 step

INTRO
|------------------------------------------------------|
|------------------------------------------------------|
|------------------------------------------------------|
|-2-2----2-2----2-2------------------------------------|
|-2-2----2-2----2-2------------------------------------|
|-2-2----2-2----2-2------------------------------------|
Doubled throughout

|---------------------------|------------------------------|
|---------------------------|------------------------------|
|---------------------------|-4-------------------------4--|
|-2-2----2-2----2-2---------|-2-------------------------2--|
|-2-2----2-2----2-2---------|-----------------5---2--------|
|-2-2----2-2----2-2---------|------------5----5---2--------|

|---------------------------------|--------------------------------|--------------------------|
|---------------------------------|--------------------------------|--------------------------|
|-(4)-----------------------------|-4---4----------------------4---|--------------------------|
|-(2)-----------------------------|-2---2---2------------------2---|--------------------------|
|--------2---5---0---5--------3---|-------------2---5-----2--------|---2---5---0---5-------3--|
|--------2---5------------2---3---|-------------2---5-----2--------|---2---5-----------2---3--|

|-------------------------------------------------------------------|
|-------------------------------------------------------------------|
|-------------------------------------------------------------------|
|-------------------------------------------------------------------|
|---0---2-----0---2----5\-------------------------------------------|
|---0---2-----0---2-------------------------------------------------|

|-----------------------------|--------------------------------------|
|-----------------------------|--------------------------------------|
|-----------------------------|--------------------------------------|
|-----------------------------|--------------------------------------|
|---0---2-----0---2----5\-----|---0---2-----0---2-----2---0----------|
|---0---2-----0---2-----------|---0---2-----0---2-----2---0----------|
[ Tab from: http://www.guitartabs.cc/tabs/u/union_underground/across_the_nation_tab.html ]
|--------------------------|---------------------|-------------------------|
|--------------------------|---------------------|-------------------------|
|--------------------------|---------------------|-------------------------|
|--------------------------|---------------------|---2---5-----------2---8-|
|---2-----0---2-----(2)\---|-2-2-----2-2-----2-2-|---2---5---0---5---2---8-|
|---2-----0---2-----(2)\---|-2-2-----2-2-----2-2-|---2---5-----------2---8-|

use delay, phaser and a wah wah
|-------------------------------------------------|------------------------------|-------------------|
|-------------------------------------------------|------------------------------|-------------------|
|-------------------------------------------------|------------------------------|-------------------|
|---2-2---2-----2---2---2----2--------2---2--2--2-|-2-2---2---2-2-2-2---2--2-2-2-|--2-2---2--2-2-2-2-|
|-------------------------------------------------|------------------------------|-------------------|
|-------------------------------------------------|------------------------------|-------------------|

|-------------------------------------------------------------------|
|-------------------------------------------------------------------|
|-------------------------------------------------------------------|
|---2-2---2-2---2-2-2-----2---2-2----2---2-2------------------------|
|-------------------------------------------------------------------|
|-------------------------------------------------------------------|

That's it, listen to the song for timing.

Lyrics
I'll get the guns, the drugs
For my generation
I'll take the fall
The saints, across the nation
Yeah it's the sex, the Gods, the fakes, the frauds
They're messing with me
Come on, come on, come on
Let's get it on

Move to the music
Play that fucking music
Move it to the music yeah (Let's get it on)
Move to my music
Play that fucking music
Live through my music yeah

I'll get the guns, the drugs
To my generation
I'll take the fall
The saints, across the nation
Yeah it's the sex, the Gods, the freaks, the frauds
They're messing with me
Come on, come on, come on
Let's get it on

Move to the music
Play that fucking music
Move it to the music yeah (Let's get it on)
Move to my music
Play that fucking music
Live through my music yeah

Forget the lies, the money
We're in this together and through it all
They said that nothing's forever
Well they refused to see the change in me
Why won't they wake up?
Come on, come on, come on
Let's get it on

Move to the music
Play that fucking music
Move it to the music yeah (Let's get it on)
Move to my music
Play that fucking music
Live through my music yeah

Move to the music
Move it to the music yeah
Move to the music
Live through the music yeah
Move to the music
Move it to the music yeah
Move to my music
Live through my music yeah

Move to the music
Play that fucking music
Move it to the music yeah (Let's get it on)
Move to my music
Play that fucking music
Live through my music yeah

Move to the music
Play that fucking music
Move it to the music yeah (Let's get it on)
Move to my music
Play that fucking music
Live through my music yeah
Comments