Union Against The Power - Nothin About You Printable Chords & Tabs

 

Nothin About You Printable Chords & Tabs

Union Against The Power Chords & Tabs

Version: 1 Type: Tab 0 ratings
1 star 2 stars 3 stars 4 stars 5 stars
comments

Nothin About You Printable Tab

Hey Guys sorry about the messed up tab earlier. Here Is a Revised 
Version. 

Anyway this is one of or new songs, We play it clean %40 reverb.
On a les paul. Thanks, All the guys from UATP


E---------2------/---------2------/---------2-------/---------2------/
B-----3-----3---3/-----3-----3---3/-----3-----3---3-/-----3-----3---3/
G---2---2-----2--/---0---0-----0--/---2---2-----2---/---2---2-----2--/
D-0--------------/-0--------------/-0---------------/-0--------------/
A----------------/----------------/-----------------/----------------/
E----------------/----------------/-----------------/----------------/


E---------3-------/---------5-------/---------2-------/
B-----3-----3---3-/-----3-----3---3-/-----3-----3---3-/
G---2---2-----2---/---2---2-----2---/---2---2-----2---/
D-0---------------/-0---------------/-0---------------/
A-----------------/-----------------/-----------------/
E-----------------/-----------------/-----------------/

Chorus:

E ---2-2-2-2-2-2--/-2-2-2-2-2-2--/-2-2-2-2-2-2--/-2-2-2-2-2-2-/
B ---3-3-3-3-3-3--/-3-3-3-3-3-3--/-3-3-3-3-3-3--/-3-3-3-3-3-3-/
G ---2-2-2-2-2-2--/-0-0-0-0-0-0--/-2-2-2-2-2-2--/-2-2-2-2-2-2-/
D ---0-0-0-0-0-0--/-0-0-0-0-0-0--/-0-0-0-0-0-0--/-0-0-0-0-0-0-/
A ----------------/--------------/--------------/-------------/
E ----------------/--------------/--------------/-------------/


E ---2-2-2-2-2-2--/-3-3-3-3-3-3--/-5-5-5-5-5-5--/-2-//
B ---3-3-3-3-3-3--/-3-3-3-3-3-3--/-3-3-3-3-3-3--/-3-//
G ---2-2-2-2-2-2--/-2-2-2-2-2-2--/-2-2-2-2-2-2--/-2-//
D ---0-0-0-0-0-0--/-0-0-0-0-0-0--/-0-0-0-0-0-0--/-0-//
A ----------------/--------------/--------------/---//
E ----------------/--------------/--------------/---//

Verse 2

Verse 2:
[ Tab from: http://www.guitartabs.cc/tabs/u/union_against_the_power/nothin_about_you_printable_tab.html ]
E ---------------3--2----------------3—2-----------/
B---------3-----3--3----------3-----3--3--3--------/
G -----2----2--------------2-----2---------2-------/   X2
D --0-------------------0--------------------------/
A -------------------------------------------------/
E  ------------------------------------------------/

Chorus:

E ---2-2-2-2-2-2--/-2-2-2-2-2-2--/-2-2-2-2-2-2--/-2-2-2-2-2-2-/
B ---3-3-3-3-3-3--/-3-3-3-3-3-3--/-3-3-3-3-3-3--/-3-3-3-3-3-3-/
G ---2-2-2-2-2-2--/-0-0-0-0-0-0--/-2-2-2-2-2-2--/-2-2-2-2-2-2-/
D ---0-0-0-0-0-0--/-0-0-0-0-0-0--/-0-0-0-0-0-0--/-0-0-0-0-0-0-/
A ----------------/--------------/--------------/-------------/
E ----------------/--------------/--------------/-------------/


E ---2-2-2-2-2-2--/-3-3-3-3-3-3--/-5-5-5-5-5-5--/-2-//
B ---3-3-3-3-3-3--/-3-3-3-3-3-3--/-3-3-3-3-3-3--/-3-//
G ---2-2-2-2-2-2--/-2-2-2-2-2-2--/-2-2-2-2-2-2--/-2-//
D ---0-0-0-0-0-0--/-0-0-0-0-0-0--/-0-0-0-0-0-0--/-0-//
A ----------------/--------------/--------------/---//
E ----------------/--------------/--------------/---//

Verse 3:

E -------2--------2--------2--------2--------2------2-------3-----//
B--------3--------3--------3--------3--------3------3-------3-----//
G -----------2---------2--------0---------0------2-------2------2-//
D ----------------------------------------------------------------//
A ----------------------------------------------------------------//
E ----------------------------------------------------------------//

E -3-------5--------5-------5-----//
B -3-------3--------3-------3-----//
G -----2------2---------2---------// X2
D --------------------------------//
A --------------------------------//
E --------------------------------//

Outro:

E ------2-------2-----------2---/
B-------3-------3-----------3---/
G ----------2-------2-----------/
D ------------------------------/
A ------------------------------/
E  -----------------------------/

Thats it, 
  Hope you have fun.
  
Comments