Union 13 - Ronalds Fuckhouse Chords & Tabs

 

Ronalds Fuckhouse Chords & Tabs

Union 13 Chords & Tabs

Version: 1 Type: Tab 0 ratings
1 star 2 stars 3 stars 4 stars 5 stars
comments

Ronalds Fuckhouse Tab

   
intro: 
e|------------------------------------------------------------------------|
B|------------------------------------------------------------------------|
G|------------------------------------------------------------------------|
D|-0-3-2----------3-2-0---------------------------------------------------|
A|-------5-4--0-2---------------------------------------------------------|
E|------------------------------------------------------------------------|

intro 2: ( a couple of times)
e|------------------------------------------------------------------------|
B|-------------------------------------------------end-it-with------------|
G|-77777777-10-10-10-999-7-5555555---------10-9--------7------------------|
D|-77777777-10-10-10-999-7-5555555-777-999-10-9--------7------------------|
A|-55555555-8--8--8--777-5-3333333-777-999-8--7--------5------------------|
E|---------------------------------555-777--------------------------------|

solo:?
[ Tab from: http://www.guitartabs.cc/tabs/u/union_13/ronalds_fuckhouse_tab.html ]
verse:
e|------------------------------------------------------------------------|
B|------------------------------------------------------------------------|
G|-777-10-9---------------------------------------------------------------|
D|-777-10-9-10-10-10-10-10------------------------------------------------|
A|-555-8--7-10-10-10-10-10------------------------------------------------|
E|----------8--8--8--8--8-------------------------------------------------|

chorus/break:
e|------------------------------------------------------------------------|
B|------------------------------------------------------------------------|
G|-777-888-999-10-10-10---------------------------------------------------|
D|-777-888-999-10-10-10---------------------------------------------------|
A|-555-666-777-8--8--8----------------------------------------------------|
E|------------------------------------------------------------------------|


| /  slide up
| \  slide down
| h  hammer-on
| p  pull-off
| ~  vibrato
| +  harmonic
| x  Mute note


questions?

     crust_and_anguish_life@yahoo.com
Comments