Unida - Human Tornado Chords & Tabs

 

Human Tornado Chords & Tabs

Unida Chords & Tabs

Version: 2 Type: Tab 0 ratings
1 star 2 stars 3 stars 4 stars 5 stars
comments

Human Tornado Tab

   
human tornado

by Unida (the one and only Kyuss heirs) 
from the album 'coping with the urban coyote'

transcribed by Christian Reindel (creindel@gmx.de)
any questions or corrections-e-mail me

tune down one whole step

Intro
D:|---------------------------------------------------|
A:|---------------------------------------------------|
F:|--------5/7--7-------------------------------------|
C:|-5/7--7-3/5--5-5/7--7------------------------------|
G:|-3/5--5--------3/5--5------------------------------|
D:|---------------------------------------------------|
 
Verse Riff
D:|---------------------------------------------------|
A:|---------------------------------------------------|
F:|--------5/7--7-------------------------------------|
C:|-5/7--7-3/5--5-5/7--7-7-7-7-7-7-7-7-7-7-7-7-7-7----|
G:|-3/5--5--------3/5--5-5-5-5-5-5-5-5-5-5-5-5-5-5----|
D:|---------------------------------------------------|

Chorus Riff - 3 times
D:|-------------------------------------------------------|
A:|-------------------------------------------------------|
F:|-----------------5---------------------10-10-7-7-5-5-7-|
C:|-5/7-5-/-7---5/7-3-7/5\7---5/7--5-/-7------------------|
G:|-3/5-3-/-5---3/5---5/3\5---3/5--3-/-5------------------|
D:|-------------------------------------------------------|
[ Tab from: http://www.guitartabs.cc/tabs/u/unida/human_tornado_tab_ver_2.html ]
guitarsolo
Riff 1 - 2 times
D:|-------------------------------------------------------------------------|
A:|-------------------------------------------------------------------------|
F:|-------------------------------------------------------------------------|
C:|-12-12-12-12-12-12-12-121010101010101010-7-7-7-7-7-7-7-7-7-7-7-7-7-7-7-7-|
G:|-10-10-10-10-10-10-10-10-8-8-8-8-8-8-8-8-5-5-5-5-5-5-5-5-5-5-5-5-5-5-5-5-|
D:|-------------------------------------------------------------------------|

Riff 2 - 5 times       
D:|-----------------------------------|-------------------------|
A:|-----------------------------------|-------------------------|
F:|-----------------------------------|-------------------------|
C:|-5/7-7-7-7-7-7-7-7-7-7-7-7-7-7-7-7-|------3-----------3-5-5--|
G:|-3/5-5-5-5-5-5-5-5-5-5-5-5-5-5-5-5-|--3^5---5-5---3^5--------|
D:|-----------------------------------|-------------------------|





Riff 2 - 1 time      
D:|-----------------------------------|-------------------------|
A:|-----------------------------------|-------------------------|
F:|-----------------------------------|-------------------------|
C:|-5/7-7-7-7-7-7-7-7-7-7-7-7-7-7-7-7-|------3-----------3-5-5--|
G:|-3/5-5-5-5-5-5-5-5-5-5-5-5-5-5-5-5-|--3^5---5-5---3^5--------|
D:|-----------------------------------|-------------------------|

Riff 1 - 4 times
D:|-------------------------------------------------------------------------|
A:|-------------------------------------------------------------------------|
F:|-------------------------------------------------------------------------|
C:|-12-12-12-12-12-12-12-121010101010101010-7-7-7-7-7-7-7-7-7-7-7-7-7-7-7-7-|
G:|-10-10-10-10-10-10-10-10-8-8-8-8-8-8-8-8-5-5-5-5-5-5-5-5-5-5-5-5-5-5-5-5-|
D:|-------------------------------------------------------------------------|

Chorus Riff - 4 times
D:|-------------------------------------------------------|--------|
A:|-------------------------------------------------------|--------|
F:|-----------------5---------------------10-10-7-7-5-5-7-|--------|
C:|-5/7-5-/-7---5/7-3-7/5\7---5/7--5-/-7------------------|-7-(7)--|
G:|-3/5-3-/-5---3/5---5/3\5---3/5--3-/-5------------------|-5-(5)--|
D:|-------------------------------------------------------|--------|

end.
Comments