Unicorns - Sea Ghost Chords & Tabs

 

Sea Ghost Chords & Tabs

Unicorns Chords & Tabs

Version: 1 Type: Tab 0 ratings
1 star 2 stars 3 stars 4 stars 5 stars
comments

Sea Ghost Tab

   
			     Sea Ghost - The Unicorns

Tabbed by: Matt Harwick

Tuning: standard

e-7-9-7-0-9-9-9-| (repeat 3x)
b---------9-9-9-|
g---------9-9-9-|
d---------9-9-9-|
a---------7-0-7-|
E---------------|

E chord thing

e-9-9-9-9-9-9-|
b-9-9-9-9-9-9-|
g-9-9-9-9-9-9-|
d-9-9-9-9-9-9-|
a-7-0-7-0-7-0-|
E-------------|

e-7-9-7-0-9-9-9-|
b---------9-9-9-|
g---------9-9-9-|
d---------9-9-9-|
a---------7-0-7-|
E---------------|

E chord thing
[ Tab from: http://www.guitartabs.cc/tabs/u/unicorns/sea_ghost_tab.html ]
e-9-9-9-9-9-9-| (repeat 2x)
b-9-9-9-9-9-9-|
g-9-9-9-9-9-9-|
d-9-9-9-9-9-9-|
a-7-0-7-0-7-0-|
E-------------|

then switches between A and E sometimes they play A at the 12 fret

after that it slows down and goes

b a G#m F#m e

E chord thing

e-9-9-9-9-9-9-| ( repeat 2x)
b-9-9-9-9-9-9-|
g-9-9-9-9-9-9-|
d-9-9-9-9-9-9-|
a-7-0-7-0-7-0-|
E-------------|

a chord

and then back to the E chord thing

i missing part of it but you can figure out the rest
Comments