Unearth - Zombie Autopilot Chords & Tabs

 

Zombie Autopilot Chords & Tabs

Unearth Chords & Tabs

Version: 1 Type: Tab 0 ratings
1 star 2 stars 3 stars 4 stars 5 stars
comments

Zombie Autopilot Tab

Band-Unearth
Song-Zombie Autopilot
Album-The Oncoming Storm (2004)
Instrument-Guitar
Tabber-justbreathing87 (dand10468@yahoo.com)

Tuning- BEADGBE

First Riff (Gtr.1)
|-----------------------------------------------------------------------------|
|-----------------------------------------------------------------------------|
|--------------------------14p12p11-11----------------------------------------|
|-12p11p9-9~---9-11-9-11-12-----------9-12p11p9-9~-11-12--11--9---------------|
|------------12------------------------------------------12-12----------------|
|-----------------------------------------------------------------------------|
|-----------------------------------------------------------------------------|

|-----------------------------------------------------------------------------|
|-----------------------------------------------------------------------------|
|--------------------------14p12p11-11----------------------------------------|
|-12p11p9-9~---9-11-9-11-12-----------9-12p11p9-9~-11-12--9-------------------|
|------------12-----------------------------------------12-10-12-9h10p9-------|
|----------------------------------------------------------------------12-10--|
|-----------------------------------------------------------------------------|

|-----------------------------------------------------------------------------|
|-----------------------------------------------------------------------------|
|--------------------------14p12p11-11----------------------------------------|
|-12p11p9-9~---9-11-9-11-12-----------9-12p11p9-9~-11-12--11--9---------------|
|------------12------------------------------------------12-12----------------|
|-----------------------------------------------------------------------------|
|-----------------------------------------------------------------------------|

|-----------------------------------------------------------------------------|
|-----------------------------------------------------------------------------|
|--------------------------14p12p11-11----------------------------------------|
|-12p11p9-9~---9-11-9-11-12-----------9-12p11p9-9~-11-12--9-------------------|
|------------12-----------------------------------------12-10-12-9h10p9-------|
|----------------------------------------------------------------------12-10--|
|-----------------------------------------------------------------------------|

First Riff (Gtr.2)
|----------------------------------------------------------------|
|----------------------------------------------------------------|
|----------------------------------------------------------------|
|----------------------------------------------------------------|
|--/-999999-55-77-7-999999-1212-11-12--999999-77-5555------------|
|--/-777777-33-55-5-777777-1010-9--10--777777-55-3333------------|
|----------------------------------------------------------------|

Second Riff (Gtr.1)
|----------------------------------------|
|----------------------------------------|
|----------------------------------------|
|----5--5----5---7p5p4--4--4----2--5p4p2-|
|---7-7--7--7-7--------5-5--5--3-3-------|
|--7---7---8----------5---7---3----------|
|----------------------------------------|

|----------------------------------------------------------------------|
|----------------------------------------------------------------------|
|----------------------------------------------------------------------|
|---5--5----5--5----4--4----2--2----5--5----5--5----7---7------9---9---|
|--7-7--7--7-7--7--5-5--5--3-3--3--7-7--7--7-7--7--9-9---9---11-11--11-|
|-7---7---8---8---5---5---3---3---7---7---8---8---10--10----12---12----|
|----------------------------------------------------------------------|

|------------------------|
|------------------------|
|------------------------|
|------------------------|
|-7-9-11-9-9h11p9p9------|
|------------------h10p9-|
|------------------------|

Second Riff (Gtr.2)
|--------------------------------------|
|--------------------------------------|
|--------------------------------------|
|--------------------------------------|
|-9-99999-111111111111-7-77777-7-77777-|
|-7-77777-9-9-9-9-9-9--5-55555-5-55555-|
|--------------------------------------|
PM  .....   . . . . .    .....   .....

|--------------------------------------|
|--------------------------------------|
|--------------------------------------|
|--------------------------------------|
|-9-99999-111111111111-7-77777-7-77777-|
|-7-77777-9-9-9-9-9-9--5-55555-5-55555-|
|--------------------------------------|

|----------------------------------------------------------|
|----------------------------------------------------------|
|----------------------------------------------------------|
|----------------------------------------------------------|
|-9-99999-111111111111-12-12-12-12-12-12-13-13-13-13-13-13-|
|-7-77777-9-9-9-9-9-9--10-10-10-10-10-10-11-11-11-11-11-11-|
|----------------------------------------------------------|

|-------------------|
|-------------------|
|-------------------|
|-------------------|
|-------------------|
|-12-10-8-7h8p7h8p7-|

Third Riff (Both Guitars)
|----------------------------------------|
|----------------------------------------|
|----------------------------------------|
|-11-----11-9-13-11-9-119----------------|
|-----------------------------9-7-9-109--|
|-8------8--7-11-8--7b8r7-----7-5-7b8r7--|
|--0-000----------------0-000----------0-|
PM   ...                  ...          .

Fourth Riff (Both Guitars)
|---------------------------------------------------------------------|
|---------------------------------------------------------------------|
|---------------------------------------------------------------------|
|---------------------------------------------------------------------|
|----------------9-7-10-------------9-7-10-------------9-7-10-777-999-|
|-------8---10---7-5-8~------8---10-7-5-8~------8---10-7-5-8~-555-777-|
|-00000-6p0-8p0--------00000-6p0-8p0------00000-6p0-8p0---------------|
PM.....                .....              .....

Solo (Gtr.1)
|-------------------------------------------------------|
|-------------------------------------------------------|
|-------------------------------------------------------|
|---9-11h12p11p9-9-11h12p11p9--9-11h12p11p9---14-12-11~-|
|--9------------9------------10-------------10----------|
|-------------------------------------------------------|
|-------------------------------------------------------|

|-------------------------------------------------|
|-------------------------------------------------|
|------------------------------12--12-14-12-14-16/|
|------12--12-14-12-14-16-14-16--16---------------|
|-14-16--16---------------------------------------|
|-------------------------------------------------|
|-------------------------------------------------|

|-14-15-12-14--14---------------------|
|------------15----10h12p10~~---------|
|-------------------------------------|
|-------------------------------12-12-|
|-------------------------------------|
|-------------------------------------|
|-------------------------------------|
[ Tab from: http://www.guitartabs.cc/tabs/u/unearth/zombie_autopilot_tab.html ]
|----------------------------------------------------------|
|----------------------------------------------------------|
|-7h9p7--7h9p7--7h9p7--7h9p7--7h9p7--7h9p7--7h9p7--7h9p7---|
|------h9-----h9-----h9-----h9-----h9-----h9-----h9-----h9-|
|----------------------------------------------------------|
|----------------------------------------------------------|
|----------------------------------------------------------|


|--------------------------------------------------------------|
|----------------------------------------------------10--------|
|-7h9p7h9-6h8p6h8-4h6p4h6-6h7p6-6-7-9-7-6--------------12-11-9-|
|-----------------------------------------7-9--9-11-12---------|
|--------------------------------------------------------------|
|--------------------------------------------------------------|
|--------------------------------------------------------------|

|---------------------|
|-----------10--------|
|-------------12-11-9-|
|-9--9-11-12----------|
|---------------------|
|---------------------|
|---------------------|

|-------12*-12*-12*-12*------|
|----12*---------------------|
|-9*--------------------9br~-|
|----------------------------|
|----------------------------|
|----------------------------|
|----------------------------|

|--------------------------------------------------------|
|-15p12-15p12-15p12-15p12-15p12-15p12-15p12-15p12-10/12~-|
|--------------------------------------------------------|
|--------------------------------------------------------|
|--------------------------------------------------------|
|--------------------------------------------------------|
|--------------------------------------------------------|

|-\19b----------17-14-12---12-14-14b/---13b14-17-13b14-12~-|
|----\16b/--------------15---------------------------------|
|----------------------------------------------------------|
|----------------------------------------------------------|
|----------------------------------------------------------|
|----------------------------------------------------------|
|----------------------------------------------------------|

|-------------------------------------------------------12--12-14-12-14-15-|
|-------------------------------------------12~-12-14-15--15---------------|
|--------------------------9-11-11p9---------------------------------------|
|-9-11h12p11-12-7-11-12~-12---------12-7~-9/-------------------------------|
|--------------------------------------------------------------------------|
|--------------------------------------------------------------------------|
|--------------------------------------------------------------------------|

|-14-15-17-15-17-18b19-19~-|
|--------------------------|
|--------------------------|
|--------------------------|
|--------------------------|
|--------------------------|
|--------------------------|

Solo (Gtr.2) (Repeat as needed)
|-------------------|
|-------------------|
|-------------------|
|-------------------|
|-999--777--555-777-|
|-777--555--333-555-|
|-------------------|

First Riff (Gtr.1)
|-----------------------------------------------------------------------------|
|-----------------------------------------------------------------------------|
|--------------------------14p12p11-11----------------------------------------|
|-12p11p9-9~---9-11-9-11-12-----------9-12p11p9-9~-11-12--11--9---------------|
|------------12------------------------------------------12-12----------------|
|-----------------------------------------------------------------------------|
|-----------------------------------------------------------------------------|

|-----------------------------------------------------------------------------|
|-----------------------------------------------------------------------------|
|--------------------------14p12p11-11----------------------------------------|
|-12p11p9-9~---9-11-9-11-12-----------9-12p11p9-9~-11-12--9-------------------|
|------------12-----------------------------------------12-10-12-9h10p9-------|
|----------------------------------------------------------------------12-10--|
|-----------------------------------------------------------------------------|

|-----------------------------------------------------------------------------|
|-----------------------------------------------------------------------------|
|--------------------------14p12p11-11----------------------------------------|
|-12p11p9-9~---9-11-9-11-12-----------9-12p11p9-9~-11-12--11--9---------------|
|------------12------------------------------------------12-12----------------|
|-----------------------------------------------------------------------------|
|-----------------------------------------------------------------------------|

|-----------------------------------------------------------------------------|
|-----------------------------------------------------------------------------|
|--------------------------14p12p11-11----------------------------------------|
|-12p11p9-9~---9-11-9-11-12-----------9-12p11p9-9~-11-12--9-------------------|
|------------12-----------------------------------------12-10-12-9h10p9-------|
|----------------------------------------------------------------------12-10--|
|-----------------------------------------------------------------------------|

First Riff (Gtr.2)
|----------------------------------------------------------------|
|----------------------------------------------------------------|
|----------------------------------------------------------------|
|----------------------------------------------------------------|
|--/-999999-55-77-7-999999-1212-11-12--999999-77-5555------------|
|--/-777777-33-55-5-777777-1010-9--10--777777-55-3333------------|
|----------------------------------------------------------------|

Third Riff (Both Guitars)
|----------------------------------------|
|----------------------------------------|
|----------------------------------------|
|-11-----11-9-13-11-9-119----------------|
|-----------------------------9-7-9-109--|
|-8------8--7-11-8--7b8r7-----7-5-7b8r7--|
|--0-000----------------0-000----------0-|
PM   ...                  ...          .

Fifth Riff (Gtr.1)
|----------------------------------------|
|----------------------------------------|
|-----------2---2-------------2---2------|
|--------------------0--2--0----------0--|
|--5---4---2-2-2-2--0--2--0--2-2-2-2-0-0-|
|-7-7-5-5-3---3----2--0--2--3---3---2----|
|----------------------------------------|

Fifth Riff (Gtr.2)
|----------------------------------------------------------------||
|----------------------------------------------------------------||
|----------------------------------------------------------------||
|----------------------------------------------------------------||
|--9-7-5-9-5-5-4--9-7-5-44-2--5----------------4~----------------||
|--7-5-3-7-5-3-2--7-5-3-22-0--3----------------2~----------------||
|--------------------------------------(at end)------------------||

Sixth Riff (Gtr.1)
|----------------------------------------|
|----------------------------------------|
|-----------2---2-------------2---2------|
|--------------------0--2--0----------0--|
|--5---4---2-2-2-2--0--2--0--2-2-2-2-0-0-|
|-7-7-5-5-3---3----2--0--2--3---3---2----|
|----------------------------------------|

Seventh Riff (Gtr.1)
|-5----5---------5----------------|
|---------------------------5-----|
|--6/7--6/7-6-4~--6-7-6-7-6--6/7~-|
|---------------------------------|
|---------------------------------|
|---------------------------------|
|---------------------------------|

Seventh Riff (Gtr.2)
|-------------------------------------------------|
|-------------------------------------------------|
|-------------------------------------------------|
|-------------------------------------------------|
|--9-7-5-9-5-5-4--9-7-5-44-2--5----------------4~-|
|--7-5-3-7-5-3-2--7-5-3-22-0--3----------------2~-|
|-------------------------------------------------|
Comments