Unearth - This Lying World Chords & Tabs

 

This Lying World Chords & Tabs

Unearth Chords & Tabs

Version: 1 Type: Tab

This Lying World Tab

Band- Unearth
Song- This Lying World

Opening Riff - both guitars

its basically this:

C#|----------------------------------------------------------------|
G#|----------------------------------------------------------------|
 E|--------12\14--12\14--------------------------------------------|
 B|--------x--x----x--x--------------------------------------------|
F#|--------10\12--10\12--------------------------------------------|
 B|--00000---------------------------------------------------------|


Second Riff:


C#|----------------------------------------------------------------|
G#|----------------------------------------------------------------|
 E|----------------------------------------------------------------|
 B|-----------------3----------------------------------------------|
F#|---3-5-6-5-3-5-6---3h5p3h5---3-5-6-5-0-5-3-0-6-0-3h5------------|
 B|-0-------------------------0------------------------------------|


Third Riff: (Note: Can be played by 1 person)

Guitar 1

C#|----------------------------------------------------------------|
G#|------------------------------------13-11-10--------------------|
 E|--7-7-7-9-10-9-7-9-10-12-10-9-10-12----------12-10-9-10---------|
 B|----------------------------------------------------------------|
F#|----------------------------------------------------------------|
 B|----------------------------------------------------------------|

Guitar 2

C#|----------------------------------------------------------------|
G#|----------------------------------------------------------------|
 E|----------------------------------------------------------------|
 B|--------------------------------10-8-7--------------------------|
F#|--5-5-5-7-8-7-5-7-8-10-8-7-8-10--------10-7-8-7-8---------------|
 B|----------------------------------------------------------------|

Fourth Riff:


C#|----------------------------------------------------------------|
G#|----------------------------------------------------------------|
 E|----------------------------------------------------------------|
 B|-----------------3----------------------------------------------|
F#|---3-5-6-5-3-5-6---3h5p3h5---3-5-6-5-0-5-3-0-6-0-3h5------------|
 B|-0-------------------------0------------------------------------|


Fifth  Riff:

C#|----------------------------------------------------------------|
G#|----------------------------------------------------------------|
 E|----------------------------------------------------------------|
 B|-12----------12----------12/------------------------------------|
F#|-10----------10----------10/------------------------------------|
 B|----0000000-----0000000-----------------------------------------|


C#|---------------------------------------------------------------------|
G#|---------------------------------------------------------------------|
 E|-14-12-14-------14-12-14--12-10-12-14-12-14-------14-12-14-15-14-15--|
 B|---------------------------------------------------------------------|
F#|-12-10-12-------12-10-12--10-8--10-12-10-12-------12-10-12-13-12-13--|
 B|----------00000----------------------------00000---------------------|


Fill:

C#|-------------------|
G#|-------------------|
 E|--7-9-10-7-12-9-9--|
 B|-------------------|
F#|--5-7-8--5-10p7-7--|
 B|-------------------|


Sixth Riff:


C#|------------------------------------------------------------------------|
G#|------------------------------------------------------------------------|
 E|------------------------------------------------------------------------|
 B|--------12-------------12p10-10-12--------12--------12p10-10-7-5-3-3h5--|
F#|--------12-------------12p10-10-12--------12--------12p10-10-7-5-3-3h5--|
 B|-000000-12-0000-000000-12p10-10-12-000000-12-000000-12p10-10-7-5-3-3h5--|
[ Tab from: http://www.guitartabs.cc/tabs/u/unearth/this_lying_world_tab.html ]
C#|-------------------------------------------------------------------------|
G#|-------------------------------------------------------------------------|
 E|-------------------------------------------------------------------------|
 B|--------12-------------12p10-10-12--------12--------12p10-10-7-5-3-5-----|
F#|--------12-------------12p10-10-12--------12--------12p10-10-7-5-3-5---0-|
 B|-000000-12-0000-000000-12p10-10-12-000000-12-000000-12p10-10-7-5-3-5---0-|

Seventh Riff:

Guitar1
C#|---------------------------------------------------------|
G#|---------------------------------------------------------|
 E|---------------------------------------------------------|
 B|---------------------------------------------------------|
F#|--8-8-12p8-12p8-12p8-12p8--12-12-12h13-12-12-12-12h13-12-|
 B|---------------------------------------------------------|
PM   . .                      .  .           .  .

C#|----------------------------------------------------------------|
G#|----------------------------------------------------------------|
 E|----------------------------------------------------------------|
 B|----------------------------------------------------------------|
F#|-10-10-15p10-15p10-15p10-15p10-15p10-7-7-7--8--10-8-7-----------|
 B|----------------------------------------------------------------|
PM  .  .                                . .


Guitar2
C#|------------------------------------------------------------------|
G#|------------------------------------------------------------------|
 E|------------------------------------------------------------------|
 B|------------------------------------------------------------------|
F#|-----7---3---10---5-----------------------------------------------|
 B|-----7---3---10---5-----------------------------------------------|

SeventRiff Part2:

Guitar1
C#|----------------------------------------------------------|
G#|----------------------------------------------------------|
 E|----------------------------------------------------------|
 B|----------------------------------------------------------|
F#|--8-8-12p8-12p8-12p8-12p8--12-12-12h13--12-12-12-12h13-12-|
 B|----------------------------------------------------------|
PM   . .                      .  .            .  .

C#|----------------------------------------------------------------|
G#|----------------------------------------------------------------|
 E|----------------------------------------------------------------|
 B|----------------------------------------------------------------|
F#|-10-10-15p10-15p10-15p10-15p10-15p10-7-7-7--8--10-8-7-----------|
 B|----------------------------------------------------------------|
PM  .  .                                . .

Guitar2
C#|-------------------------------------------------------------------------------------|
G#|-------------------------------------------------------------------------------------|
 E|-------------------------------------------------------------------------------------|
 B|-10-10--10-10-10-10--10-10-10-10-10h12-10----10h12-10--15-14-12----------------------|
F#|----------------------------------------------------------------15-13-12-10-12-13-12-|
 B|-------------------------------------------------------------------------------------|
Pm  .  .         .  .         .  .

C#|----------------------------------------------------------------|
G#|----------------------------------------------------------------|
 E|----------------------------------------------------------------|
 B|--------14-14----14-14------------------------------------------|
F#|--12-12-12-14-12-12-12-12---------------------------------------|
 B|--12-12-------12-12---------------------------------------------|
PM   .  .        .  .

Eighth Riff:

C#|--------------------------------15b~----------------------------|
G#|----------------------------------------------------------------|
 E|----------------------------------------------------------------|
 B|----------------------------------------------------------------|
F#|----------------------------------------------------------------|
 B|--00000-7-5-3h20-000000-7-5-000-----2h0-000000------------------|