Unearth - The Great Dividers Chords & Tabs

 

The Great Dividers Chords & Tabs

Unearth Chords & Tabs

Version: 1 Type: Bass Tab

The Great Dividers Bass Tab

   
Band- Unearth
Song- The Great Dividers

Tuning: C G C F

Intro (0:00)
F |------|
C |------|
G |------|
C |--0~--|

Riff 1 (0:03)
F |-------------------------------------------------|
C |----6-----------6--------------------------------|
G |--4---4-5-3-4-4---4-5-3-4-7-7-6-7-6-4-3-3-5-4-3--|
C |-------------------------------------------------|

F |-----------------------------------------------------|
C |----6-----------6------------------------------------|
G |--4---4-5-3-4-4---4-5-3-4-7-7-6-7-6-4---------5-4-4--|
C |--------------------------------------3-4-5-6--------|

Riff 2 (0:39)
F |--------------------|
C |--------------------|
G |--4~-3-4~-3-4~-7-2--|
C |--------------------|

Riff 3 (0:49) (^ = Bend)
F |-------------------------------------|
C |-------------------------------------|
G |--4^--------4^--------4^----------7--|
C |-----000000----000000----000000-7----|

F |---------------------------------------|
C |---------------------------------------|
G |--4^--------4^--------4^----------7----|
C |-----000000----000000----000000-----9--|

Riff 4 (0:59)
F |--------------------------------------------|
C |--------------------------------------------|
G |------------------------------3----4h5p4-4--|
C |--0-2p0-3p0-0000000-0-2p0-3p0---00----------|
[ Tab from: http://www.guitartabs.cc/tabs/u/unearth/the_great_dividers_btab.html ]
F |-------------------------------------------------|
C |-------------------------------------------------|
G |------------------------------7h9p7h9-9h10p9h10--|
C |--0-2p0-3p0-0000000-0-2p0-3p0--------------------|

Riff 5 (1:19)
F |---------------|
C |---------------|
G |---------------|
C |--0~-1~-5~-1~--|

Riff 6 (1:38)
F |-------------------|
C |-------------------|
G |-------------------|
C |--0~-1~-3~-5~-3-1--|

Fill 1 (1:58)
F |------|
C |------|
G |------|
C |--0~--|

Riff 7 (2:09) (repeat the first bar with each ending in order)
F |-----------------|---------|---------|---------|-----------------|
C |-----------------|---------|---------|---------|-----------------|
G |-----------------|---------|---------|---------|-----------------|
C |-0-00-00-0-00-00-|-000-0-7-|-000-0-9-|-000-0-7-|-0-00-00-0-00-00-|

Riff 8 (2:22)
F |----------------------------------------|
C |----------------------------------------|
G |---------5--------6--------10--------9--|
C |--0-00-0---0-00-0---0-00-0----0-00-0----|

Riff 1 (2:37)
Fill 1 (2:56)

Fill 2 (3:14)
F |------------------------------|
C |------------------------------|
G |------------------------------|
C |--00000000-00000000-00000000--|

Riff 9 (3:20)
F |-------------------------------------------|
C |-------------------------------------------|
G |----------4---------5---------7-3-3-5-4-3--|
C |--0000000---0000000---0000000--------------|

F |-----------------------------------------------|
C |-----------------------------------------------|
G |----------4---------5---------7---------5-4-4--|
C |--0000000---0000000---0000000---3-4-5-6--------|