Unearth - Stings Of Conscience Chords & Tabs

 

Stings Of Conscience Chords & Tabs

Unearth Chords & Tabs

Version: 1 Type: Tab 0 ratings
1 star 2 stars 3 stars 4 stars 5 stars
comments

Stings Of Conscience Tab

Tabbed By: TheFoRgoTenFlaMe
E-Mail: Darkpsyco666@hotmail.com
Band: Unearth
Song: Stings of Conscience

Took a long fucking time but I tabbed the entire
song. This is my first tab all by ear. I'm sure its right
so enjoy. This is a sick ass band!

Palm Mute = X            Tremblo Picking = T
Slide = \ 
               
Guitar I At :00
E---------------------------------------------
B-12-0-0-7-0-0-9-0-0-5-0-0-7-0-0-3-0-0-5\7-0--
G---------------------------------------------
D---------------------------------------------
A---------------------------------------------
E---------------------------------------------

Guitar II At :02
E--------------------
B--------------------
G--------------------
D--------------------
A--2--2--2--2--2--2--
D--2--2--2--2--2--2--

Guitar II At :04
E--------------------
B--------------------
G--------------------
D--------------------
A--2--7--5--4--2--0--
D--2--7--5--4--2--0--

Guitar I At :20
E---------------------------------------
B-12-12-12h13p12-13\--------------------
G--------------------10-10-10h11h12-14--
D---------------------------------------
A---------------------------------------
E---------------------------------------

Guitar I At :36
E------------------------------------------------------------
B------------------------------------------------------------
G------------------------------------------------------------
D-------------------------4-5-4------------------------------
A----5-4-5-7-5-4----5-4---------5-----5-4-5-7-5-4----5-4-7-7-
E--7-------------5------5-----------7-------------5--3-2-5-5-

E-----------------------------------------------------------------
B-----------------------------------------------------------------
G-----------------------------------------------------------------
D-------------------------4-5-4-------------------------5-4-2-----
A----5-4-5-7-5-4----5-4---------5-----5-4-5-7-5-4---5-4-3-2-0-5-4-
E--7-------------5------5-----------7-------------5-3-2-------3-2-

E--------------------
B--------------------
G--------------------
D----------8---------
A------7-8---8-7-----
E--6-7-----------8-7-

Guitar I At 1:12
E--------------------
B--------------------
G--------------------
D--------------------
A--2--2--2--2--2--2--
E--0--0--0--0--0--0--
   X  X  X  X  X  X

E------------------------------------
B------------------------------------
G--5-4-2---------------2-4-----------
D--------5-4-2---2-4-5-----2---------
A--------------5---------------------
E------------------------------------

E-------------------------------------
B-------------------------------------
G------------------------2------------
D--2-3-3---2-3-5---2-3-5---5-3-2------
A--------5-------3---------------5-3--
E-------------------------------------

E--------------------------------------------
B--------------------------------------------
G------------------5-4-2---------------2-4---
D--2-3-3---2-3-5---------5-4-2---2-4-5-----2-
A--------5-------3-------------5-------------
E--------------------------------------------

Guitar I At 1:38
E-------------------------------------------------------------------------
B-----------------------------------------------T8------------------------
G---------------------------------------------------T9--T6----------------
D---------5--4---------5--4--7--5---------5--4--------------T8--T5--------
A--5-4-2--3--2--5-4-2--3--2--5--3--5-4-2--3--2----------------------T7--T4
E--3-2-0--------3-2-0--------------3-2-0----------------------------------
   X X X        X X X              X X X
[ Tab from: http://www.guitartabs.cc/tabs/u/unearth/stings_of_conscience_tab.html ]
Guitar II At 1:38
E---------------------------------------------------------------------------
B-----------------------------------------------T11-------------------------
G---------------------------------------------------T12--T9-----------------
D---------5--4---------5--4--7--5---------5--4--------------T11--T8---------
A--5-4-2--3--2--5-4-2--3--2--5--3--5-4-2--3--2----------------------T10--T7-
E--3-2-0--------3-2-0--------------3-2-0------------------------------------
   X X X        X X X              X X X

Guitar I At 2:30
E--------------------------------------------------------------
B-------------------------------------------5-3-3--------------
G-------------------------------------2-----------6-6h7-6-4----
D--8-7---6------------------5-4-2-4-5---5-4-----------------4--
A------8---9-9--7-7-5-7-4-2------------------------------------
E--------------------------------------------------------------
(Guitar II is played on A and E instead of D and A)

Guitar I At 3:33
E----------------------------------------------------------------
B----------------------------------------------------------------
G----------------------------------------------------------------
D----7-8-7--5h7p5---7-8-7--5h7p5---5-6-5--3h5p3---5--8----7--10--
A--5--------------6--------------3--------------6-------8--------
E----------------------------------------------------------------

Guitar II At 3:33
E--------------------------------------------------------
B--------------------------------------------------------
G--------------------------------------------------------
D--7------8-------5--------------------------------------
A--5------6-------3---------5-5-5-------6-6-6--5h6p5p3---
E---------------------5-5-5-------6-6-6------------------

Guitar II At 4:02
E---------------------------------
B---------------------------------
G---------------------------------
D---------------------------------
A--5---0---1---3-3-3-3-3-1-0--
D--5---0---1---3-3-3-3-3-1-0--

Guitar II At 4:06
E-------------------------------------------
B-------------------------------------------
G-------------------------------------------
D-------------------------------------------
A--5-5-5-5-5-0-0-0-0-0-1-1-1-1-1-3-3-3-3-3--
D--5-5-5-5-5-0-0-0-0-0-1-1-1-1-1-3-3-3-3-3--

Guitar I At 4:02
E-------------------------------------------------------
B-------------------------------------------------------
G----------5-------------5-------------5----------------
D--5-5-7-8---8-7-----7-8---8-7-----7-8---8-7---8--7----- 
A----------------8-8-----------6-6-----------8--------8- 
E-------------------------------------------------------

Guitar II At 4:21
E---------------------------------------------------------- 
B---------------------------------------------------------- 
G----------5-----8-8-7---7-8-7-----5-7-8-7-5---8-7---5----- 
D--5-5-7-8---8-7-------8-------8-8-----------8-----8---8-7- 
A---------------------------------------------------------- 
E----------------------------------------------------------

Guitar II 4:26
E----------------------------------------------------------
B----------------6-6-------6------------------------------- 
G----------5---------8-7-8---7-8-8-5-7-8-7-5---8-7---5----- 
D--5-5-7-8---8-7-----------------------------8-----8---8-7- 
A---------------------------------------------------------- 
E---------------------------------------------------------- 

Guitar II At 5:00
E------
B------
G------
D------ 
A--5\-- 
D--5\-- 


I didn't put in the order of the song. You can figure it out it's not that
hard. If your good enough to play this song than you can put it in order.
Comments