Unearth - Shattered By The Sun Chords & Tabs

 

Shattered By The Sun Chords & Tabs

Unearth Chords & Tabs

Version: 1 Type: Bass Tab

Shattered By The Sun Bass Tab

   
Band- Unearth
Song- Shattered By The Sun

Tuning-B,F#,B,E

Intro/Verse
e---------------------------------------|
b---------------------------------------|
f--6-6-5*-------------------------------|
b---------000000-0-000000-0-000000-000--|

riff1
e---------------------|
b---6-6-5*------------|
f----------0*0350*----|
b---------------------|
[ Tab from: http://www.guitartabs.cc/tabs/u/unearth/shattered_by_the_sun_btab.html ]
riff 2
e---------------------------------|
b---------------------------------|
f--6-5-3--5-3-1--3-1-0------------|
b---------------------0000000000--|

Riff 3(when it gets heavy play 5th and 6th frets)
e------------------------------------|
b------------------------------------|
f------10/-----10/----10/--11111111--|
b-0000----0000----0000---0-----------|

Bridge
e-----------------------------|
b-----------------------------|
f----666666666888888833333----|
b-----------------------------|