Unearth - My Heart Bleeds No Longer Chords & Tabs

 

My Heart Bleeds No Longer Chords & Tabs

Unearth Chords & Tabs

Version: 1 Type: Tab 0 ratings
1 star 2 stars 3 stars 4 stars 5 stars
comments

My Heart Bleeds No Longer Tab

   
Incredible song that no one until now even remotely knew how to tab, things will change

Unearth
My Heart Bleeds no longer

E---------------------------------------------------------
B---------6---------------6----------------6--------------
G--------b9--------------b9---------------b9--------------
D---------------------------------------------------------
A-000-000---0-0-0-000-000---0-0-0-000-000---0-0000-212s543
D-000-000---0-0-0-000-000---0-0-0-000-000---0-0000-212s543

shred this pattern, listen to song for timing
e---------------------------------
b---------------------------------
g---------------------------------
d---------------------------------
a-5-8-7-8-5-8-7-8-0-8-7-3-0-8-7-35
d---------------------------------

e------------------------------------------------------------
b------------------------------------------------------------
g---8-7--7-5-------8-7--10-8-7-8-----------------------------
d-5----8-----7-8-5----8----------3-2-3-5-3-2-3-3-2-3-7-5-3---
a-------------------------------5-------------5------------3-
d------------------------------------------------------------

e----------------
b-------------6-6
g-------------9-9
d----------------
a-0-00000-0000---
d-0-00000-0000---

e------------------------------------------------
b------------------------------------------------
g------------------------------------------------
d------------------------------------------------
a-00000-0-0-00000-0-0-00000-0-0-00000-00000-00000
d-00000-0-0-00000-0-0-00000-0-0-00000-00000-00000
[ Tab from: http://www.guitartabs.cc/tabs/u/unearth/my_heart_bleeds_no_longer_tab.html ]
e------------------------------------------------------------
b------------------------------------------------------------
g---8-7--7-5-------8-7--10-8-7-8-----------------------------
d-5----8-----7-8-5----8----------3-2-3-5-3-2-3-3-2-3-7-5-3---
a-------------------------------5-------------5------------3-
d------------------------------------------------------------

e----------------------------------------------------------------
b----------------------------------------------------------------
g-7p0-5p0-3p0-5p0-3p0-2p0-3p0-5p0-7p0-5p0-3p0-5p0-3p0-2p0-3p0-2p0
d----------------------------------------------------------------
a----------------------------------------------------------------
d----------------------------------------------------------------

e-11-10-8-7----------------------------
b----------11-10-8-7-------------------
g-------------------12-11-9-8----------
d----------------------------12p9-11h12
a--------------------------------------
d--------------------------------------

e----------------------------------------------------------------
b----------------------------------------------------------------
g-5p0-3p0-2p0-3p0-5p0-7p0-5p0-3p0-8p0-7p0-5p0-7p0-5p0-3p0-5p0-2p0
d----------------------------------------------------------------
a----------------------------------------------------------------
d----------------------------------------------------------------

e------------
b------------
g------------
d-5~-3-5~-1-3
a-5~-3-5~-1-3
d-5~-3-5~-1-3

e------------------------------
b------------------------------
g-7-8s5-3----------------------
d---------7-----7-8-10-8-7-8-7-
a---------5-0-0-5-6--8-6-5-6-5-
d-----------0-0----------------
Comments