Unearth - My Desire Chords & Tabs

 

My Desire Chords & Tabs

Unearth Chords & Tabs

Version: 1 Type: Bass Tab

My Desire Bass Tab

   
Band- Unearth
Song- My Desire

Tuning: C G C F

Riff 1 (0:38)
F |---------------------|
C |---------------------|
G |---------------------|
C |--0-000000-000000-0--|

Riff 2 (0:47)
F |----------|
C |----------|
G |----------|
C |--0~--5~--|

Riff 3 (1:11)
F |-------------------------------------|
C |-------------------------------------|
G |-------------------------------------|
C |--0000--0000-2-3-2-0000-2-3-2-3-5-3--|

Riff 4 (1:34)
F |-----------------------|
C |-----------------------|
G |-----------------------|
C |--5-555-5-0-000-3-333--|

Riff 5 (1:54)
F |-----------------------------------|
C |-----------------------------------|
G |-----------------------------------|
C |--0-3-5-3-0-3-5-3-0-3-5-3-0-5~-7~--|

F |-----------------------------------|
C |-----------------------------------|
G |-----------------------------------|
C |--0-3-5-3-0-3-5-3-0-3-5-3-0-3~-2~--|

Riff 6 (2:15)
F |-------------------------------------|
C |-------------------------------------|
G |-------------------------------------|
C |--5-00-5-00-5-00-5-00-5-0-5-0-5~-7~--|
[ Tab from: http://www.guitartabs.cc/tabs/u/unearth/my_desire_btab.html ]
F |-------------------------------------|
C |-------------------------------------|
G |-------------------------------------|
C |--5-00-5-00-5-00-5-00-5-0-5-0-3~-5~--|

Fill 1 (2:40)
F |-------------|
C |-------------|
G |-------------|
C |--5-5-0~-3~--|

Riff 4 (2:45)
Riff 5 (3:06)

Riff 7 (3:26) (not sure about this but it fits)
F |-----------------------------------|
C |-----------------------------------|
G |--5---5---5---5---7---5---5h7h8p7--|
C |----0---0---0---0---0---0----------|

F |-----------------------------------|
C |--------------------------5h7h8p7--|
G |--5---5---5---5---5h7h8p7----------|
C |----0---0---0---0------------------|

Fill 2 (3:51)
F |------|
C |------|
G |------|
C |--00--|

Riff 8 (3:54)
F |-------------------------|
C |-------------------------|
G |--14~-15-14-12-10~-9-10--|
C |-------------------------|

Fill 3 (4:15)
F |------------------------|
C |------------------------|
G |------------------------|
C |--00000000-7-5-7-8-7-5--|

Riff 9 (4:19)
F |----------------------------------------|
C |----------------------------------------|
G |----------------------------------------|
C |--7-00-00-00-8-7-5-7-00-00-7-5-7-8-7-5--|