Undertones - Teenage Kicks Chords & Tabs

 

Teenage Kicks Chords & Tabs

Undertones Chords & Tabs

Version: 2 Type: Bass Tab 0 ratings
1 star 2 stars 3 stars 4 stars 5 stars
comments

Teenage Kicks Bass Tab

   
#----------------------------------PLEASE NOTE---------------------#
This file is the author's own work and represents their 
interpretation of the song. You may only use this file for private 
study, scholarship, or research 
#------------------------------------------------------------------#

Teenage Kicks 
by The Undertones

Transcribed by Edward Halliday
[ Tab from: http://www.guitartabs.cc/tabs/u/undertones/teenage_kicks_btab_ver_2.html ]
 
This is the correct version of the song, although you really do have
to listen to the tune for the beat rythm...
 
 
Riff A
 
G|-------------------------|---------------------|
D|-------------------------|---------------------|
A|-5--5--5555--555--55--44-|--22-2222-222-22--44-|
E|-------------------------|---------------------|
 
Riff B
 
G|-------------------------|---------------------|
D|-------------------------|---------------------|
A|-5--5--5555--555--55--44-|--22-2222-222-22--00-|
E|-------------------------|---------------------|
 
Riff C
 
G|-------------------------|---------------------|
D|-------------------------|---------------------|
A|-------------------------|--00-0000-000-00--33-|
E|-3--3--3333--333--33--44-|---------------------|
 
Riff D (outro)
 
G|-------------------------|
D|-------------------------|
A|-5-5------0-0-0-5--------|
E|------3-3----------------|
 

Intro: 	riff A *2
 
verse: 	riff A
	riff B
Chorus: riff C (Play through Verse & Chorus twice)
 
	riff A *2
 
verse: 	riff A
	riff B
Chorus: riff C (Play through Verse & Chorus twice)
 
 	riff A
 	riff B
 
Chorus:	riff C
 
Outro: 	riff D
 
A note on the outro: 
Some people use an ascending scale instead of the same notes (see below). Do whatever feels 
best to you.
 
Alternative outro:
G|-------------------------|
D|-------------------------|
A|-5-5------0-2-3-5--------|
E|------3-3----------------|
Comments