Underoath - When The Sun Sleeps Chords & Tabs

 

When The Sun Sleeps Chords & Tabs

Underoath Chords & Tabs

Version: 1 Type: Bass Tab 0 ratings
1 star 2 stars 3 stars 4 stars 5 stars
comments

When The Sun Sleeps Bass Tab

Part 1

G|-9-9-9-9-9-9-9-9-|-11-11-11-11-11-11-11-11-|-9-9-9-9-9-9-9-9-|
D|-----------------|-------------------------|-----------------|
A|-----------------|-------------------------|-----------------|
E|-----------------|-------------------------|-----------------|

G|-7-7-7-7-7-7-7-7-|-5-5-5-5-5-5-5-5-|-----------------|
D|-----------------|-----------------|-----------------|
A|-----------------|-----------------|-3-3-3-3-3-3-3-3-| (on 5 string play open C on bottom string)
E|-----------------|-----------------|-----------------|

Part 2
[ Tab from: http://www.guitartabs.cc/tabs/u/underoath/when_the_sun_sleeps_btab.html ]
G|-----------------|-----------------|-------------------------|
D|-----------------|-----------------|-------------------------|
A|-7-7-7-7-7-7-7-7-|-9-9-9-9-9-9-9-9-|-10-10-10-10-10-10-10-10-|
E|-----------------|-----------------|-------------------------|

G|-----------------|-----------------|-----------------|
D|-----------------|-----------------|-----------------|
A|-7-7-7-7-7-7-7-7-|-5-5-5-5-5-5-5-5-|-3-3-3-3-3-3-3-3-|
E|-----------------|-----------------|-----------------|

Part 3

G|-----------------|-----------------|-----------------|-----------------|
D|-----------------|-----------------|-----------------|-----------------|
A|-0-0-0-0-0-0-0-0-|-3-3-3-3-3-3-3-3-|-----------------|-5-5-5-5-5-5-5-5-|
E|-----------------|-----------------|-0-0-0-0-0-0-0-0-|-----------------|

Song Structure
Part 1 x2
Part 2 x8
Part 3 x4
Part 2 x4
Part 3 x(rest of song, rythm changes throughout the song, but the notes are the same)
Comments