Underoath - Some Will Seek Forgiveness Others Escape Chords & Tabs

 

Some Will Seek Forgiveness Others Escape Chords & Tabs

Underoath Chords & Tabs

Version: 1 Type: Tab 0 ratings
1 star 2 stars 3 stars 4 stars 5 stars
comments

Some Will Seek Forgiveness Others Escape Tab

Drop "D" Tuning: I hope you like it, tell me if i'm missing something.
^=strum
/=slide
*=pull off
|=hammer on

("I heard a voice through the discord")
1st guitar (Acoustic) strumming (listen to song for transitions)
   (^) (^) (^)
D---x---x---5---|
a---4---0---5---|
d---7---0---5---|
g---6---7---7---|  (2x)
b---0---7---7---|
e---0---0---0---|

2nd guitar (Acoustic) picking

D-------------|
a-------------|
d---9*7-------|
g---------9---|  (16x)
b-------7-----|
e-------------|

("I swear I'll hear your voice in the crowd")
1st guitar (Acoustic) picking

D--------------------------------------------|
a--------------------------------------------|
d---12---11---9---7---7/12---11---9---7------|
g-----9----9---9---9------9----9---9---9-----|  (3x)
b------12---12--12--12-----12---12--12--12---|
e--------------------------------------------|

("Hey Unfaithful")
1st guitar (Acoustic) strumming (listen to song for transitions)

D---5---7---9---|
a---5---7---9---|
d---7---7---0---|  (2x)
g---7---6---7---|
b---0---0---0---|
e---0---0---0---|

2nd guitar (Acoustic) picking

D----------------------------|
a----------------------------|
d----------------------------|
g-----12--12--12-12-12----12-|  (4x)
b---10--10--10--9--9--9|11---|
e----------------------------|

repeat for:

Here's my kiss to betray
Desperate to brush the lips of grace
Do you feel hollow when you think of how I lied?

Oh sweet angel of mercy
With your grace like the morning
Wrap your loving arms around me
Oh sweet angel of mercy
With your grace like the morning
Wrap your loving arms around me
[ Tab from: http://www.guitartabs.cc/tabs/u/underoath/some_will_seek_forgiveness_others_escape_tab.html ]
("Hey Unfaithful")
1st guitar (Acoustic) strumming (listen to song for transitions)

D---5---7---9---|
a---5---7---9---|
d---7---7---0---|  (2x)
g---7---6---7---|
b---0---0---0---|
e---0---0---0---|

2nd guitar (Acoustic) picking

D----------------------------|
a----------------------------|
d----------------------------|
g-----12--12--12-12-12----12-|  (4x)
b---10--10--10--9--9--9|11---|
e----------------------------|

("Hey unfaithful")
1st guitar (Electric)

D---5---7---9---|
a---5---7---9---|
d---7---7---0---|  (2x)
g---7---6---7---|
b---0---0---0---|
e---0---0---0---|

2nd guitar (Electric) (listen to song for transitions)
   (^)-continuous strumming-
D----------------------------|
a---5------------------------|
d---0------------------------|
g---7---4---6---7---9---11---|
b---7---0---0---0---0---0----|
e---0---7---9---10--12--14---|

1st guitar (Electric/Clean)

D---------------------------------------------------|
a---------------------------------------------------|
d---0---0---0---0---0---0---0---0---0---0---0---0---|  (2x)
g---14--14--14--14--14--14--9---9---9---11--11--11--|
b---------------------------------------------------|
e---------------------------------------------------|

1st guitar (Electric) (listen to song for transitions)
   (^)
D---4---5---9---7---|
a---5---5---9---7---|
d---4---7---0---0---|
g---7---7---7---6---|
b---x---0---0---x---|
e---x---0---x---x---|

2nd guitar (Electric) (listen to song for transitions)
   (^)
D----------------|
a---12---7---9---|
d---x----x---x---|
g---14---9---11--|
b----------------|
e----------------|


END
Comments