Underoath - Smic Tague Chords & Tabs

 

Smic Tague Chords & Tabs

Underoath Chords & Tabs

Version: 1 Type: Tab

Smic Tague Tab

Part 1
Guitar 1(Tim)
|-----------|
|------7----|
|--------9--|
|--9p7------|Reapeat this for awhile then part 2
|-----------|
|-----------|

Guitar 2 (James)-Only played every now and then
|------|
|--10--|
|--9---|
|--7---|Strum once!
|--7---|
|------|


[ Tab from: http://www.guitartabs.cc/tabs/u/underoath/smic_tague_tab.html ]
Part 2
Guitar 1 (Tim)
|------------------------------|
|--10---10---10---5---5---7----|
|-----7----7----7---7---7---7--|
|------------------------------|Reapeat this for awhile then back to part 1
|------------------------------|
|------------------------------|

Guitar 2 (James)-This is hard to hear but its there
|-------|
|--7----|
|----7--|
|-------|Repeat these harmonic notes over and over
|-------|
|-------|



Part 3
Both guitars
|---------------------------------|
|--10-10-10-10-10-10-5-5-5-7-7-7--|
|--9--9--9--9--9--9--4-4-4-6-6-6--|Repeat until song ends
|---------------------------------|
|---------------------------------|
|---------------------------------|