Underoath - Short Of Daybreak Chords & Tabs

 

Short Of Daybreak Chords & Tabs

Underoath Chords & Tabs

Version: 1 Type: Tab 0 ratings
1 star 2 stars 3 stars 4 stars 5 stars
comments

Short Of Daybreak Tab

   
----------------------------------------------------------------------------

			 Short of Daybreak - Underoath
----------------------------------------------------------------------------
                         Tabbed by: Michelle McAlister

Email: guitarloser101@hotmail.com

Tuning: DADGBE
(0:00)
E|-------------------------------------------------------------|
B|-------------------------------------------------------------|
G|-------------------------------------------------------------|
D|-0-7/9-10--0-7/9-10-9----8888888888888887777777-3-1-0-3-11-0-|  (2x)
A|-0-x-x-x---0-x-x-x--x----8888888888888887777777-3-1-0-3-11-0-|
E|-0-5/7-8---0-5/7-8--7----8888888888888887777777-3-1-0-3-11-0-|

(0:32)
e|------------------------------------------------------------|
B|------------------------------------------------------------|
G|------------------------------------------------------------|
D|-00000-00000-00000-00000-00000-00000-00000-00000-0----------|
A|-00000-00000-00000-00000-00000-00000-00000-00000-0----------|
E|-00000-00000-00000-00000-00000-00000-00000-00000-0-1b-------|
   ..... ..... ..... ..... ..... ..... ..... .....
[ Tab from: http://www.guitartabs.cc/tabs/u/underoath/short_of_daybreak_tab.html ]
rythm guitar (0:41)
e|-------------------------------------------------------------|
B|-------------------------------------------------------------|
G|-------------------------------------------------------------|
D|-2-1-0-3-1-0-------00000-77-00000-55-00000-33-00000-55-------|
A|-2-1-0-3-1-0--(8x)-00000-77-00000-55-00000-33-00000-55-------|(6x?)
E|-2-1-0-3-1-0-------00000-77-00000-55-00000-33-00000-55-------|
   ...........       .....    .....    .....    .....

Lead guitar(0:55)
e|-----------------|
B|-----------------|
G|-10-9-5---10-5-2-|
D|-----------------|
A|-----------------|
E|-----------------|

(1:22) rythm
e|-------------|
B|-------------|
G|-------------|
D|-00000-333333
A|-00000-333333 (11x?)
E|-00000-333333
   ..... ......

(1:29) lead
e|------------------------------------------|
B|------------------------------------------|
G|-10-9----12-10-9------10-9-----14-12-10-9-|
D|-----10----------10---------10------------|  (2x)
A|------------------------------------------|
E|------------------------------------------|


Ok im not exactly sure on this part so bear with me (1:53)
e|--------------------------------------------------|
B|--------------------------------------------------|
G|-10p9p0---------------------------5p3p0-----------|
D|--------10p8p0 (7x)---0000-3p1p0----------(2x)----| (5x altogether)
A|----------------------0000------------------------|
E|----------------------0000------------------------|

On the 5th time on the last part hit open and let it ring
e|---------|
B|---------|
G|---------|
D|-----0---|
A|-----0---|
E|-----0---|


| /  slide up
| \  slide down
| h  hammer-on
| p  pull-off
| ~  vibrato
| +  harmonic
| x  Mute note
===============================================================================
Comments