Underoath - Reinventing Your Exit Chords & Tabs

 

Reinventing Your Exit Chords & Tabs

Underoath Chords & Tabs

Version: 6 Type: Tab 0 ratings
1 star 2 stars 3 stars 4 stars 5 stars
comments

Reinventing Your Exit Tab

   
Band:  underOATH
Album: There Only Chasing Safety
Song:  Reinventing Your Exit

Copyright (c)  Solid State Records 2004
Version 1.0 - 3/25/05

Transcribed By: Jody Payne    throwyourxroses
Email:          sorrowfulmorning@yahoo.com


.  - palm mute           /  - slide up to
\  - slide down to       ~  - vibrato
h  - hammer on           b  - Bend
p  - pull off            Suffixes for bend
t  - tap                 f  - full bend    h - half bend
ph - pinched harmonic    q  - quarter bend t - tap bend
*  - see comment         ^  - Hold bend    r release bend
x  - Stuccatto           ~  - vibrato bend
,  - slight palm mute    () - ghost note, sustained note
"  - tremolo note        <> - Trill

Tunning: (Drop-D) D A D G B E

    		Intro:    
   The first part is just feedback your hearing.
e|-------------------------------------------------------------------|
B|-------------------------------------------------------------------|
G|---4h5~-(Feedback)-------------------------------------------------|
D|-------------------------------------------------------------------|
A|-------------------------------------------------------------------|
D|-------------------------------------------------------------------|

    		Guitar 1:
    "12th and hyde, on a sunday..."
e|---------3~--------3~-----------------------------------------------|
B|--0-0-0-0---0-0-0-0----(x8)----------------------------------------|
G|---5-5-5-----5-5-5-------------------------------------------------|
D|-------------------------------------------------------------------|
A|-------------------------------------------------------------------|
D|-------------------------------------------------------------------|
    Guitar 2:
e|-------------------------------------------------------------------|
B|----------------8~---------------8~--(x8)--------------------------|
G|--4h5p4h5p4h5p4----4h5p4h5p4h5p4-----------------------------------|
D|-------------------------------------------------------------------|
A|-------------------------------------------------------------------|
D|-------------------------------------------------------------------|

     		Chorus:
    		Guitars 1 and 2:
    "Invincible..."                    	        x2
e|-------------------------------------------------------------------|
B|--0-0-000----------------------------------------------------------|
G|--5-5-555--5-55-5555--5-5-555--5-55-5555---------------------------|
D|--5-5-555--5-55-5555--5-5-555--5-55-5555---------------------------|
A|--0-0-000--3-33-3333--3-3-333--5-55-5555---------------------------|
D|----------------------3-3-333--5-55-5555---------------------------|

     		Verse 1:
    		Guitars 1 and 2:
    "It starts again, can you feel it..."  	x2
e|-------------------------------------------------------------------|
B|------0~-----------------------------------------------------------|
G|------5~-----5-4h5~---5--4~----------------------------------------|
D|------5~------5--------5--5~---------------------------------------|
A|--0-0-0~-----------------------------------------------------------|
D|-----------3~-------5~---------------------------------------------|
    . .
		Prechorus Part 1:
    		Guitar 1:
   "Around and round, your uninviting..."   	x2
e|-------------------------------------------------------------------|
B|--5-5-3-3-5-5-6-6--------------------------------------------------|
G|---5-5-5-5-5-5-5-5-------------------------------------------------|
D|-------------------------------------------------------------------|
A|-------------------------------------------------------------------|
D|-------------------------------------------------------------------|

    		Guitar 2:
e|-------------------------------------------------------------------|
B|-------------------------------------------------------------------|
G|--22222222-55555555-55555555-55555555------------------------------|
D|--22222222-55555555-55555555-55555555------------------------------|
A|--00000000-33333333-55555555-22222222------------------------------|
D|-----------33333333-55555555-22222222------------------------------|
    ........ ........ ........ ........

		PreChorus Part 2:
		Guitars 1 and 2:   (Listen to get the strumming right)
e|-------------------------------------------------------------------------|
B|-------------------------------------------------------------------------|
G|--5-5-555-55-5-555-5-5-555-55-5-555-55-5-5-555-55-5-555-5-5-555-55-5-555-|
D|--5-5-555-55-5-555-5-5-555-55-5-555-55-5-5-555-55-5-555-5-5-555-55-5-555-|
A|--3-3-333-33-3-333-0-0-000-55-5-555-33-3-3-333-33-3-333-0-0-000-55-5-555-|
D|--3-3-333-33-3-333-0-0-000-55-5-555-33-3-3-333-33-3-333-0-0-000-55-5-555-|
                                      ..
		PreChorus Part 3:
		Guitar 1:
e|-------------------------------------------------------------------|
B|--5-5-5-5h6---5-5-5-5h6--------------------------------------------|
G|---5-5-5-5-----5-5-5-5---------------------------------------------|
D|-------------------------------------------------------------------|
A|-------------------------------------------------------------------|
D|-------------------------------------------------------------------|

		Chorus:
		Guitars 1 and 2:		x2
e|-------------------------------------------------------------------|
B|--0-0-000----------------------------------------------------------|
G|--5-5-555--5-55-5555--5-5-555--5-55-5555---------------------------|
D|--5-5-555--5-55-5555--5-5-555--5-55-5555---------------------------|
A|--0-0-000--3-33-3333--3-3-333--5-55-5555---------------------------|
D|----------------------3-3-333--5-55-5555---------------------------|


		Verse 2:
		Guitars 1 and 2:		x2
e|-------------------------------------------------------------------|
B|------0~-----------------------------------------------------------|
G|------5~-----5-4h5-5~---5--5p4-5~----------------------------------|
D|------5~------5---5~------5---5~-----------------------------------|
A|--0-0-0~-----------------------------------------------------------|
D|-----------3~---------5~-------------------------------------------|
    . .

		From here you repeat:
		Prechorus Part 1 x2
		PreChorus Part 2
		Chorus           x2
		then go into the Breakdown.
[ Tab from: http://www.guitartabs.cc/tabs/u/underoath/reinventing_your_exit_tab_ver_6.html ]
		Prechorus Part 1:
    		Guitar 1:
   "Around and round, your uninviting..."   	x2
e|-------------------------------------------------------------------|
B|--5-5-3-3-5-5-6-6--------------------------------------------------|
G|---5-5-5-5-5-5-5-5-------------------------------------------------|
D|-------------------------------------------------------------------|
A|-------------------------------------------------------------------|
D|-------------------------------------------------------------------|

    		Guitar 2:
e|-------------------------------------------------------------------|
B|-------------------------------------------------------------------|
G|--22222222-55555555-55555555-55555555------------------------------|
D|--22222222-55555555-55555555-55555555------------------------------|
A|--00000000-33333333-55555555-22222222------------------------------|
D|-----------33333333-55555555-22222222------------------------------|
    ........ ........ ........ ........

		PreChorus Part 2:
		Guitars 1 and 2:   (Listen to get the strumming right)
e|-------------------------------------------------------------------------|
B|-------------------------------------------------------------------------|
G|--5-5-555-55-5-555-5-5-555-55-5-555-55-5-5-555-55-5-555-5-5-555-55-5-555-|
D|--5-5-555-55-5-555-5-5-555-55-5-555-55-5-5-555-55-5-555-5-5-555-55-5-555-|
A|--3-3-333-33-3-333-0-0-000-55-5-555-33-3-3-333-33-3-333-0-0-000-55-5-555-|
D|--3-3-333-33-3-333-0-0-000-55-5-555-33-3-3-333-33-3-333-0-0-000-55-5-555-|
                                      ..

		Chorus:
		Guitars 1 and 2:		x2
e|-------------------------------------------------------------------|
B|--0-0-000----------------------------------------------------------|
G|--5-5-555--5-55-5555--5-5-555--5-55-5555---------------------------|
D|--5-5-555--5-55-5555--5-5-555--5-55-5555---------------------------|
A|--0-0-000--3-33-3333--3-3-333--5-55-5555---------------------------|
D|----------------------3-3-333--5-55-5555---------------------------|

		Breakdown:
		Guitar 1:
"Reaching out for a hand thats not there"	(Just do this the whole breakdown)
e|-------------------------------------------------------------------|
B|-------------------------------------------------------------------|
G|-9-9-9-9-9-9-9-9-9-9-9-9-9-9-9-9-9-9-------------------------------|
D|-x-x-x-x-x-x-x-x-x-x-x-x-x-x-x-x-x-x-------------------------------|
A|-7-7-7-7-7-7-7-7-7-7-7-7-7-7-7-7-7-7-------------------------------|
D|-------------------------------------------------------------------|

		Guitar 2:	(Mess around with this, you'll get it)
e|-------------------------------------------------------------------|
B|-------------------------------------------------------------------|
G|-5555-5555------5555-5555-5555-5555------5555-5555-5~--------------|
D|-5555-5555-12/--5555-5555-5555-5555-12/--5555-5555-5~--------------|
A|-0000-0000-12/--3333-5555-0000-0000-12/--3333-5555-0~--------------|
D|-----------12/--3333-5555-----------12/--3333-5555-----------------|


		Interlude: Clean
		Guitar 1:	(Repeat as much as necessary)
e|-------------------------------------------------------------------|
B|-------------------------------------------------------------------|
G|----5-4h5--5--5-4h5--5--5-5p4--5--5-5p4--5-------------------------|
D|-----5----5----5----5----5----5----5----5--------------------------|
A|--0~--------3~-----------------------------------------------------|
D|----------------------3~--------5~---------------------------------|

			   Clean
		Guitar 2:	(Repeat as much as necessary)
e|-------------------------------------------------------------------|
B|-------------------------------------------------------------------|
G|-2-2-2---5-5-5---5-5-5---5-5-5-------------------------------------|
D|-2-2-2---5-5-5---5-5-5---5-5-5-------------------------------------|
A|-0-0-0---3-3-3---3-3-3---5-5-5-------------------------------------|
D|-----------------3-3-3---5-5-5-------------------------------------|
   . . .   . . .   . . .   . . .

			   Clean
		Guitar 2:	(Repeat as much as necessary)
e|-------------------------------------------------------------------|
B|-------------------------------------------------------------------|
G|-222222222-55555555-55555555-55555555------------------------------|
D|-222222222-55555555-55555555-55555555------------------------------|
A|-000000000-33333333-33333333-55555555------------------------------|
D|--------------------33333333-55555555------------------------------|
   ......... ........ ........ ........

		Guitar 1:	(Repeat as much as necessary)
e|-------------------------------------------------------------------|
B|--5-5-3-3-5-5-6-6--------------------------------------------------|
G|---5-5-5-5-5-5-5-5-------------------------------------------------|
D|-------------------------------------------------------------------|
A|-------------------------------------------------------------------|
D|-------------------------------------------------------------------|

		Guitar 2:	(Repeat as much as necessary)
e|-------------------------------------------------------------------|
B|-------------------------------------------------------------------|
G|-222222222-55555555-55555555-55555555------------------------------|
D|-222222222-55555555-55555555-55555555------------------------------|
A|-000000000-33333333-33333333-55555555------------------------------|
D|--------------------33333333-55555555------------------------------|
   ......... ........ ........ ........


		Chorus:
		Guitars 1 and 2:		x2
e|-------------------------------------------------------------------|
B|--0-0-000----------------------------------------------------------|
G|--5-5-555--5-55-5555--5-5-555--5-55-5555---------------------------|
D|--5-5-555--5-55-5555--5-5-555--5-55-5555---------------------------|
A|--0-0-000--3-33-3333--3-3-333--5-55-5555---------------------------|
D|----------------------3-3-333--5-55-5555---------------------------|

		Guitars 1 and 2:	(End on this, let ring out)
e|-------------------------------------------------------------------|
B|--0~---------------------------------------------------------------|
G|--5~---------------------------------------------------------------|
D|--5~---------------------------------------------------------------|
A|--0~---------------------------------------------------------------|
D|-------------------------------------------------------------------|
Comments