Underoath - Down Set Go Chords & Tabs

 

Down Set Go Chords & Tabs

Underoath Chords & Tabs

Version: 1 Type: Bass Tab 0 ratings
1 star 2 stars 3 stars 4 stars 5 stars
comments

Down Set Go Bass Tab

Artist: underOath
Song: Down, Set, Go
Album: They're Only Chasing Safty

G|----------|----------------|-------------|
D|----------|----------------|-------------|
A|----------|4--4-4-4-4-4-4--|--4--4--4--4-|
D|-4--4--4-4|----------------|-------------|
[ Tab from: http://www.guitartabs.cc/tabs/u/underoath/down_set_go_btab.html ]
On fills and pauses hold the A|-4-


dont play on the acustic bridge at 2:27

during the last screaming when he repeats the phrase several times play

G|-------------|------------|
D|-------------|------------|
A|-------4--4--|0--0--------|
D|-4--4--------|------2--2--|
                          these guy,Thanx
Comments